ISO-10303-21;
HEADER;
/* Generated by software containing ST-Developer
 * from STEP Tools, Inc. (www.steptools.com) 
 */

FILE_DESCRIPTION(
/* description */ (''),
/* implementation_level */ '2;1');

FILE_NAME(
/* name */ 'part2-glass.stp',
/* time_stamp */ '2024-03-02T13:21:23+01:00',
/* author */ ('Utente'),
/* organization */ (''),
/* preprocessor_version */ 'ST-DEVELOPER v20',
/* originating_system */ 'Autodesk Inventor 2024',
/* authorisation */ '');

FILE_SCHEMA (('AUTOMOTIVE_DESIGN { 1 0 10303 214 3 1 1 }'));
ENDSEC;

DATA;
#10=MECHANICAL_DESIGN_GEOMETRIC_PRESENTATION_REPRESENTATION('',(#14,#15),
#337);
#11=SHAPE_REPRESENTATION_RELATIONSHIP('SRR','None',#344,#12);
#12=ADVANCED_BREP_SHAPE_REPRESENTATION('',(#13),#336);
#13=MANIFOLD_SOLID_BREP('Solido1',#180);
#14=STYLED_ITEM('',(#354),#178);
#15=STYLED_ITEM('',(#353),#13);
#16=PLANE('',#206);
#17=PLANE('',#216);
#18=PLANE('',#223);
#19=PLANE('',#224);
#20=FACE_OUTER_BOUND('',#30,.T.);
#21=FACE_OUTER_BOUND('',#31,.T.);
#22=FACE_OUTER_BOUND('',#32,.T.);
#23=FACE_OUTER_BOUND('',#33,.T.);
#24=FACE_OUTER_BOUND('',#34,.T.);
#25=FACE_OUTER_BOUND('',#35,.T.);
#26=FACE_OUTER_BOUND('',#36,.T.);
#27=FACE_OUTER_BOUND('',#37,.T.);
#28=FACE_OUTER_BOUND('',#38,.T.);
#29=FACE_OUTER_BOUND('',#39,.T.);
#30=EDGE_LOOP('',(#116,#117,#118,#119));
#31=EDGE_LOOP('',(#120,#121,#122,#123));
#32=EDGE_LOOP('',(#124,#125,#126,#127));
#33=EDGE_LOOP('',(#128,#129,#130,#131));
#34=EDGE_LOOP('',(#132,#133,#134,#135));
#35=EDGE_LOOP('',(#136,#137,#138,#139));
#36=EDGE_LOOP('',(#140,#141,#142,#143));
#37=EDGE_LOOP('',(#144,#145,#146,#147));
#38=EDGE_LOOP('',(#148,#149,#150,#151,#152,#153,#154,#155));
#39=EDGE_LOOP('',(#156,#157,#158,#159,#160,#161,#162,#163));
#40=LINE('',#289,#52);
#41=LINE('',#292,#53);
#42=LINE('',#295,#54);
#43=LINE('',#297,#55);
#44=LINE('',#298,#56);
#45=LINE('',#304,#57);
#46=LINE('',#310,#58);
#47=LINE('',#316,#59);
#48=LINE('',#319,#60);
#49=LINE('',#321,#61);
#50=LINE('',#322,#62);
#51=LINE('',#328,#63);
#52=VECTOR('',#231,10.);
#53=VECTOR('',#234,10.);
#54=VECTOR('',#237,10.);
#55=VECTOR('',#238,10.);
#56=VECTOR('',#239,10.);
#57=VECTOR('',#246,10.);
#58=VECTOR('',#253,10.);
#59=VECTOR('',#260,10.);
#60=VECTOR('',#263,10.);
#61=VECTOR('',#264,10.);
#62=VECTOR('',#265,10.);
#63=VECTOR('',#272,10.);
#64=CIRCLE('',#204,5.50000000000011);
#65=CIRCLE('',#205,5.50000000000011);
#66=CIRCLE('',#208,5.50000000000006);
#67=CIRCLE('',#209,5.50000000000006);
#68=CIRCLE('',#211,25.0000000000002);
#69=CIRCLE('',#212,25.0000000000002);
#70=CIRCLE('',#214,5.50000000000015);
#71=CIRCLE('',#215,5.50000000000015);
#72=CIRCLE('',#218,5.50000000000011);
#73=CIRCLE('',#219,5.50000000000011);
#74=CIRCLE('',#221,25.0000000000002);
#75=CIRCLE('',#222,25.0000000000002);
#76=VERTEX_POINT('',#285);
#77=VERTEX_POINT('',#286);
#78=VERTEX_POINT('',#288);
#79=VERTEX_POINT('',#290);
#80=VERTEX_POINT('',#294);
#81=VERTEX_POINT('',#296);
#82=VERTEX_POINT('',#300);
#83=VERTEX_POINT('',#302);
#84=VERTEX_POINT('',#306);
#85=VERTEX_POINT('',#308);
#86=VERTEX_POINT('',#312);
#87=VERTEX_POINT('',#314);
#88=VERTEX_POINT('',#318);
#89=VERTEX_POINT('',#320);
#90=VERTEX_POINT('',#324);
#91=VERTEX_POINT('',#326);
#92=EDGE_CURVE('',#76,#77,#64,.T.);
#93=EDGE_CURVE('',#77,#78,#40,.T.);
#94=EDGE_CURVE('',#79,#78,#65,.T.);
#95=EDGE_CURVE('',#76,#79,#41,.T.);
#96=EDGE_CURVE('',#80,#76,#42,.T.);
#97=EDGE_CURVE('',#81,#79,#43,.T.);
#98=EDGE_CURVE('',#80,#81,#44,.T.);
#99=EDGE_CURVE('',#82,#80,#66,.T.);
#100=EDGE_CURVE('',#83,#81,#67,.T.);
#101=EDGE_CURVE('',#82,#83,#45,.T.);
#102=EDGE_CURVE('',#84,#82,#68,.T.);
#103=EDGE_CURVE('',#85,#83,#69,.T.);
#104=EDGE_CURVE('',#84,#85,#46,.T.);
#105=EDGE_CURVE('',#86,#84,#70,.T.);
#106=EDGE_CURVE('',#87,#85,#71,.T.);
#107=EDGE_CURVE('',#86,#87,#47,.T.);
#108=EDGE_CURVE('',#88,#86,#48,.T.);
#109=EDGE_CURVE('',#89,#87,#49,.T.);
#110=EDGE_CURVE('',#88,#89,#50,.T.);
#111=EDGE_CURVE('',#90,#88,#72,.T.);
#112=EDGE_CURVE('',#91,#89,#73,.T.);
#113=EDGE_CURVE('',#90,#91,#51,.T.);
#114=EDGE_CURVE('',#77,#90,#74,.T.);
#115=EDGE_CURVE('',#78,#91,#75,.T.);
#116=ORIENTED_EDGE('',*,*,#92,.T.);
#117=ORIENTED_EDGE('',*,*,#93,.T.);
#118=ORIENTED_EDGE('',*,*,#94,.F.);
#119=ORIENTED_EDGE('',*,*,#95,.F.);
#120=ORIENTED_EDGE('',*,*,#96,.T.);
#121=ORIENTED_EDGE('',*,*,#95,.T.);
#122=ORIENTED_EDGE('',*,*,#97,.F.);
#123=ORIENTED_EDGE('',*,*,#98,.F.);
#124=ORIENTED_EDGE('',*,*,#99,.T.);
#125=ORIENTED_EDGE('',*,*,#98,.T.);
#126=ORIENTED_EDGE('',*,*,#100,.F.);
#127=ORIENTED_EDGE('',*,*,#101,.F.);
#128=ORIENTED_EDGE('',*,*,#102,.T.);
#129=ORIENTED_EDGE('',*,*,#101,.T.);
#130=ORIENTED_EDGE('',*,*,#103,.F.);
#131=ORIENTED_EDGE('',*,*,#104,.F.);
#132=ORIENTED_EDGE('',*,*,#105,.T.);
#133=ORIENTED_EDGE('',*,*,#104,.T.);
#134=ORIENTED_EDGE('',*,*,#106,.F.);
#135=ORIENTED_EDGE('',*,*,#107,.F.);
#136=ORIENTED_EDGE('',*,*,#108,.T.);
#137=ORIENTED_EDGE('',*,*,#107,.T.);
#138=ORIENTED_EDGE('',*,*,#109,.F.);
#139=ORIENTED_EDGE('',*,*,#110,.F.);
#140=ORIENTED_EDGE('',*,*,#111,.T.);
#141=ORIENTED_EDGE('',*,*,#110,.T.);
#142=ORIENTED_EDGE('',*,*,#112,.F.);
#143=ORIENTED_EDGE('',*,*,#113,.F.);
#144=ORIENTED_EDGE('',*,*,#114,.T.);
#145=ORIENTED_EDGE('',*,*,#113,.T.);
#146=ORIENTED_EDGE('',*,*,#115,.F.);
#147=ORIENTED_EDGE('',*,*,#93,.F.);
#148=ORIENTED_EDGE('',*,*,#115,.T.);
#149=ORIENTED_EDGE('',*,*,#112,.T.);
#150=ORIENTED_EDGE('',*,*,#109,.T.);
#151=ORIENTED_EDGE('',*,*,#106,.T.);
#152=ORIENTED_EDGE('',*,*,#103,.T.);
#153=ORIENTED_EDGE('',*,*,#100,.T.);
#154=ORIENTED_EDGE('',*,*,#97,.T.);
#155=ORIENTED_EDGE('',*,*,#94,.T.);
#156=ORIENTED_EDGE('',*,*,#114,.F.);
#157=ORIENTED_EDGE('',*,*,#92,.F.);
#158=ORIENTED_EDGE('',*,*,#96,.F.);
#159=ORIENTED_EDGE('',*,*,#99,.F.);
#160=ORIENTED_EDGE('',*,*,#102,.F.);
#161=ORIENTED_EDGE('',*,*,#105,.F.);
#162=ORIENTED_EDGE('',*,*,#108,.F.);
#163=ORIENTED_EDGE('',*,*,#111,.F.);
#164=CYLINDRICAL_SURFACE('',#203,5.50000000000011);
#165=CYLINDRICAL_SURFACE('',#207,5.50000000000006);
#166=CYLINDRICAL_SURFACE('',#210,25.0000000000002);
#167=CYLINDRICAL_SURFACE('',#213,5.50000000000015);
#168=CYLINDRICAL_SURFACE('',#217,5.50000000000011);
#169=CYLINDRICAL_SURFACE('',#220,25.0000000000002);
#170=ADVANCED_FACE('',(#20),#164,.T.);
#171=ADVANCED_FACE('',(#21),#16,.T.);
#172=ADVANCED_FACE('',(#22),#165,.T.);
#173=ADVANCED_FACE('',(#23),#166,.T.);
#174=ADVANCED_FACE('',(#24),#167,.T.);
#175=ADVANCED_FACE('',(#25),#17,.T.);
#176=ADVANCED_FACE('',(#26),#168,.T.);
#177=ADVANCED_FACE('',(#27),#169,.T.);
#178=ADVANCED_FACE('',(#28),#18,.T.);
#179=ADVANCED_FACE('',(#29),#19,.F.);
#180=CLOSED_SHELL('',(#170,#171,#172,#173,#174,#175,#176,#177,#178,#179));
#181=DERIVED_UNIT_ELEMENT(#184,1.);
#182=DERIVED_UNIT_ELEMENT(#339,-3.);
#183=DIMENSIONAL_EXPONENTS(0.,1.,0.,0.,0.,0.,0.);
#184=(
CONVERSION_BASED_UNIT('gram',#186)
MASS_UNIT()
NAMED_UNIT(#183)
);
#185=(
MASS_UNIT()
NAMED_UNIT(*)
SI_UNIT(.KILO.,.GRAM.)
);
#186=MASS_MEASURE_WITH_UNIT(MASS_MEASURE(0.001),#185);
#187=DERIVED_UNIT((#181,#182));
#188=MEASURE_REPRESENTATION_ITEM('density measure',
POSITIVE_RATIO_MEASURE(1.19),#187);
#189=PROPERTY_DEFINITION_REPRESENTATION(#194,#191);
#190=PROPERTY_DEFINITION_REPRESENTATION(#195,#192);
#191=REPRESENTATION('material name',(#193),#336);
#192=REPRESENTATION('density',(#188),#336);
#193=DESCRIPTIVE_REPRESENTATION_ITEM('Acrilico, Trasparente',
'Acrilico, Trasparente');
#194=PROPERTY_DEFINITION('material property','material name',#346);
#195=PROPERTY_DEFINITION('material property','density of part',#346);
#196=DATE_TIME_ROLE('creation_date');
#197=APPLIED_DATE_AND_TIME_ASSIGNMENT(#198,#196,(#346));
#198=DATE_AND_TIME(#199,#200);
#199=CALENDAR_DATE(2022,5,4);
#200=LOCAL_TIME(0,0,0.,#201);
#201=COORDINATED_UNIVERSAL_TIME_OFFSET(0,0,.BEHIND.);
#202=AXIS2_PLACEMENT_3D('',#283,#225,#226);
#203=AXIS2_PLACEMENT_3D('',#284,#227,#228);
#204=AXIS2_PLACEMENT_3D('',#287,#229,#230);
#205=AXIS2_PLACEMENT_3D('',#291,#232,#233);
#206=AXIS2_PLACEMENT_3D('',#293,#235,#236);
#207=AXIS2_PLACEMENT_3D('',#299,#240,#241);
#208=AXIS2_PLACEMENT_3D('',#301,#242,#243);
#209=AXIS2_PLACEMENT_3D('',#303,#244,#245);
#210=AXIS2_PLACEMENT_3D('',#305,#247,#248);
#211=AXIS2_PLACEMENT_3D('',#307,#249,#250);
#212=AXIS2_PLACEMENT_3D('',#309,#251,#252);
#213=AXIS2_PLACEMENT_3D('',#311,#254,#255);
#214=AXIS2_PLACEMENT_3D('',#313,#256,#257);
#215=AXIS2_PLACEMENT_3D('',#315,#258,#259);
#216=AXIS2_PLACEMENT_3D('',#317,#261,#262);
#217=AXIS2_PLACEMENT_3D('',#323,#266,#267);
#218=AXIS2_PLACEMENT_3D('',#325,#268,#269);
#219=AXIS2_PLACEMENT_3D('',#327,#270,#271);
#220=AXIS2_PLACEMENT_3D('',#329,#273,#274);
#221=AXIS2_PLACEMENT_3D('',#330,#275,#276);
#222=AXIS2_PLACEMENT_3D('',#331,#277,#278);
#223=AXIS2_PLACEMENT_3D('',#332,#279,#280);
#224=AXIS2_PLACEMENT_3D('',#333,#281,#282);
#225=DIRECTION('axis',(0.,0.,1.));
#226=DIRECTION('refdir',(1.,0.,0.));
#227=DIRECTION('center_axis',(0.,1.,0.));
#228=DIRECTION('ref_axis',(3.06825272260037E-14,0.,-1.));
#229=DIRECTION('center_axis',(0.,1.,0.));
#230=DIRECTION('ref_axis',(3.06825272260037E-14,0.,-1.));
#231=DIRECTION('',(0.,1.,0.));
#232=DIRECTION('center_axis',(0.,1.,0.));
#233=DIRECTION('ref_axis',(3.06825272260037E-14,0.,-1.));
#234=DIRECTION('',(0.,1.,0.));
#235=DIRECTION('center_axis',(0.,0.,-1.));
#236=DIRECTION('ref_axis',(-1.,0.,0.));
#237=DIRECTION('',(-1.,0.,0.));
#238=DIRECTION('',(-1.,0.,0.));
#239=DIRECTION('',(0.,1.,0.));
#240=DIRECTION('center_axis',(0.,1.,0.));
#241=DIRECTION('ref_axis',(0.873301864919288,0.,-0.487179487179513));
#242=DIRECTION('center_axis',(0.,1.,0.));
#243=DIRECTION('ref_axis',(0.873301864919288,0.,-0.487179487179513));
#244=DIRECTION('center_axis',(0.,1.,0.));
#245=DIRECTION('ref_axis',(0.873301864919288,0.,-0.487179487179513));
#246=DIRECTION('',(0.,1.,0.));
#247=DIRECTION('center_axis',(0.,1.,0.));
#248=DIRECTION('ref_axis',(0.873301864919302,0.,0.487179487179488));
#249=DIRECTION('center_axis',(0.,1.,0.));
#250=DIRECTION('ref_axis',(0.873301864919302,0.,0.487179487179488));
#251=DIRECTION('center_axis',(0.,1.,0.));
#252=DIRECTION('ref_axis',(0.873301864919302,0.,0.487179487179488));
#253=DIRECTION('',(0.,1.,0.));
#254=DIRECTION('center_axis',(0.,1.,0.));
#255=DIRECTION('ref_axis',(-2.6241635127503E-14,0.,1.));
#256=DIRECTION('center_axis',(0.,1.,0.));
#257=DIRECTION('ref_axis',(-2.6241635127503E-14,0.,1.));
#258=DIRECTION('center_axis',(0.,1.,0.));
#259=DIRECTION('ref_axis',(-2.6241635127503E-14,0.,1.));
#260=DIRECTION('',(0.,1.,0.));
#261=DIRECTION('center_axis',(0.,0.,1.));
#262=DIRECTION('ref_axis',(1.,0.,0.));
#263=DIRECTION('',(1.,0.,0.));
#264=DIRECTION('',(1.,0.,0.));
#265=DIRECTION('',(0.,1.,0.));
#266=DIRECTION('center_axis',(0.,1.,0.));
#267=DIRECTION('ref_axis',(-0.873301864919285,0.,0.487179487179519));
#268=DIRECTION('center_axis',(0.,1.,0.));
#269=DIRECTION('ref_axis',(-0.873301864919285,0.,0.487179487179519));
#270=DIRECTION('center_axis',(0.,1.,0.));
#271=DIRECTION('ref_axis',(-0.873301864919285,0.,0.487179487179519));
#272=DIRECTION('',(0.,1.,0.));
#273=DIRECTION('center_axis',(0.,1.,0.));
#274=DIRECTION('ref_axis',(-0.873301864919302,0.,-0.487179487179489));
#275=DIRECTION('center_axis',(0.,1.,0.));
#276=DIRECTION('ref_axis',(-0.873301864919302,0.,-0.487179487179489));
#277=DIRECTION('center_axis',(0.,1.,0.));
#278=DIRECTION('ref_axis',(-0.873301864919302,0.,-0.487179487179489));
#279=DIRECTION('center_axis',(0.,1.,0.));
#280=DIRECTION('ref_axis',(0.,0.,1.));
#281=DIRECTION('center_axis',(0.,1.,0.));
#282=DIRECTION('ref_axis',(0.,0.,1.));
#283=CARTESIAN_POINT('',(0.,0.,0.));
#284=CARTESIAN_POINT('Origin',(-42.7913282377605,0.,-22.0389632586329));
#285=CARTESIAN_POINT('',(-42.7913282377604,0.,-27.538963258633));
#286=CARTESIAN_POINT('',(-47.5944884948167,0.,-24.7184504381203));
#287=CARTESIAN_POINT('Origin',(-42.7913282377605,0.,-22.0389632586329));
#288=CARTESIAN_POINT('',(-47.5944884948167,2.,-24.7184504381203));
#289=CARTESIAN_POINT('',(-47.5944884948167,0.,-24.7184504381203));
#290=CARTESIAN_POINT('',(-42.7913282377604,2.,-27.538963258633));
#291=CARTESIAN_POINT('Origin',(-42.7913282377605,2.,-22.0389632586329));
#292=CARTESIAN_POINT('',(-42.7913282377604,0.,-27.538963258633));
#293=CARTESIAN_POINT('Origin',(-13.7325555059078,0.,-27.538963258633));
#294=CARTESIAN_POINT('',(-13.7325555059078,0.,-27.538963258633));
#295=CARTESIAN_POINT('',(-13.7325555059078,0.,-27.538963258633));
#296=CARTESIAN_POINT('',(-13.7325555059078,2.,-27.538963258633));
#297=CARTESIAN_POINT('',(-13.7325555059078,2.,-27.538963258633));
#298=CARTESIAN_POINT('',(-13.7325555059078,0.,-27.538963258633));
#299=CARTESIAN_POINT('Origin',(-13.7325555059076,0.,-22.0389632586329));
#300=CARTESIAN_POINT('',(-8.9293952488515,0.,-24.7184504381203));
#301=CARTESIAN_POINT('Origin',(-13.7325555059076,0.,-22.0389632586329));
#302=CARTESIAN_POINT('',(-8.9293952488515,2.,-24.7184504381203));
#303=CARTESIAN_POINT('Origin',(-13.7325555059076,2.,-22.0389632586329));
#304=CARTESIAN_POINT('',(-8.9293952488515,0.,-24.7184504381203));
#305=CARTESIAN_POINT('Origin',(-30.7619418718342,0.,-12.538963258633));
#306=CARTESIAN_POINT('',(-8.92939524885151,0.,-0.359476079145683));
#307=CARTESIAN_POINT('Origin',(-30.7619418718342,0.,-12.538963258633));
#308=CARTESIAN_POINT('',(-8.92939524885151,2.,-0.359476079145682));
#309=CARTESIAN_POINT('Origin',(-30.7619418718342,2.,-12.538963258633));
#310=CARTESIAN_POINT('',(-8.92939524885151,0.,-0.359476079145683));
#311=CARTESIAN_POINT('Origin',(-13.7325555059077,0.,-3.03896325863312));
#312=CARTESIAN_POINT('',(-13.7325555059078,0.,2.46103674136703));
#313=CARTESIAN_POINT('Origin',(-13.7325555059077,0.,-3.03896325863312));
#314=CARTESIAN_POINT('',(-13.7325555059078,2.,2.46103674136703));
#315=CARTESIAN_POINT('Origin',(-13.7325555059077,2.,-3.03896325863312));
#316=CARTESIAN_POINT('',(-13.7325555059078,0.,2.46103674136703));
#317=CARTESIAN_POINT('Origin',(-42.7913282377604,0.,2.46103674136702));
#318=CARTESIAN_POINT('',(-42.7913282377604,0.,2.46103674136702));
#319=CARTESIAN_POINT('',(-42.7913282377604,0.,2.46103674136702));
#320=CARTESIAN_POINT('',(-42.7913282377604,2.,2.46103674136703));
#321=CARTESIAN_POINT('',(-42.7913282377604,2.,2.46103674136702));
#322=CARTESIAN_POINT('',(-42.7913282377604,0.,2.46103674136702));
#323=CARTESIAN_POINT('Origin',(-42.7913282377605,0.,-3.03896325863309));
#324=CARTESIAN_POINT('',(-47.5944884948167,0.,-0.359476079145678));
#325=CARTESIAN_POINT('Origin',(-42.7913282377605,0.,-3.03896325863309));
#326=CARTESIAN_POINT('',(-47.5944884948167,2.,-0.359476079145677));
#327=CARTESIAN_POINT('Origin',(-42.7913282377605,2.,-3.03896325863309));
#328=CARTESIAN_POINT('',(-47.5944884948167,0.,-0.359476079145678));
#329=CARTESIAN_POINT('Origin',(-25.761941871834,0.,-12.538963258633));
#330=CARTESIAN_POINT('Origin',(-25.761941871834,0.,-12.538963258633));
#331=CARTESIAN_POINT('Origin',(-25.761941871834,2.,-12.538963258633));
#332=CARTESIAN_POINT('Origin',(-28.2619418718341,2.,-12.538963258633));
#333=CARTESIAN_POINT('Origin',(-28.2619418718341,0.,-12.538963258633));
#334=UNCERTAINTY_MEASURE_WITH_UNIT(LENGTH_MEASURE(0.01),#338,
'DISTANCE_ACCURACY_VALUE',
'Maximum model space distance between geometric entities at asserted c
onnectivities');
#335=UNCERTAINTY_MEASURE_WITH_UNIT(LENGTH_MEASURE(0.01),#338,
'DISTANCE_ACCURACY_VALUE',
'Maximum model space distance between geometric entities at asserted c
onnectivities');
#336=(
GEOMETRIC_REPRESENTATION_CONTEXT(3)
GLOBAL_UNCERTAINTY_ASSIGNED_CONTEXT((#334))
GLOBAL_UNIT_ASSIGNED_CONTEXT((#338,#340,#341))
REPRESENTATION_CONTEXT('','3D')
);
#337=(
GEOMETRIC_REPRESENTATION_CONTEXT(3)
GLOBAL_UNCERTAINTY_ASSIGNED_CONTEXT((#335))
GLOBAL_UNIT_ASSIGNED_CONTEXT((#338,#340,#341))
REPRESENTATION_CONTEXT('','3D')
);
#338=(
LENGTH_UNIT()
NAMED_UNIT(*)
SI_UNIT(.MILLI.,.METRE.)
);
#339=(
LENGTH_UNIT()
NAMED_UNIT(*)
SI_UNIT(.CENTI.,.METRE.)
);
#340=(
NAMED_UNIT(*)
PLANE_ANGLE_UNIT()
SI_UNIT($,.RADIAN.)
);
#341=(
NAMED_UNIT(*)
SI_UNIT($,.STERADIAN.)
SOLID_ANGLE_UNIT()
);
#342=SHAPE_DEFINITION_REPRESENTATION(#343,#344);
#343=PRODUCT_DEFINITION_SHAPE('',$,#346);
#344=SHAPE_REPRESENTATION('',(#202),#336);
#345=PRODUCT_DEFINITION_CONTEXT('part definition',#350,'design');
#346=PRODUCT_DEFINITION('parte 2 - vetrino','part2-glass',#347,#345);
#347=PRODUCT_DEFINITION_FORMATION('',$,#352);
#348=PRODUCT_RELATED_PRODUCT_CATEGORY('part2-glass','part2-glass',(#352));
#349=APPLICATION_PROTOCOL_DEFINITION('international standard',
'automotive_design',2009,#350);
#350=APPLICATION_CONTEXT(
'Core Data for Automotive Mechanical Design Process');
#351=PRODUCT_CONTEXT('part definition',#350,'mechanical');
#352=PRODUCT('parte 2 - vetrino','part2-glass',$,(#351));
#353=PRESENTATION_STYLE_ASSIGNMENT((#355));
#354=PRESENTATION_STYLE_ASSIGNMENT((#356));
#355=SURFACE_STYLE_USAGE(.BOTH.,#361);
#356=SURFACE_STYLE_USAGE(.BOTH.,#362);
#357=SURFACE_STYLE_RENDERING_WITH_PROPERTIES($,#369,(#359));
#358=SURFACE_STYLE_RENDERING_WITH_PROPERTIES($,#370,(#360));
#359=SURFACE_STYLE_TRANSPARENT(0.58500000834465);
#360=SURFACE_STYLE_TRANSPARENT(0.569999992847443);
#361=SURFACE_SIDE_STYLE('',(#363,#357));
#362=SURFACE_SIDE_STYLE('',(#364,#358));
#363=SURFACE_STYLE_FILL_AREA(#365);
#364=SURFACE_STYLE_FILL_AREA(#366);
#365=FILL_AREA_STYLE('',(#367));
#366=FILL_AREA_STYLE('',(#368));
#367=FILL_AREA_STYLE_COLOUR('',#369);
#368=FILL_AREA_STYLE_COLOUR('',#370);
#369=COLOUR_RGB('',1.,1.,1.);
#370=COLOUR_RGB('',0.8,0.,0.);
ENDSEC;
END-ISO-10303-21;
