ISO-10303-21;
HEADER;
/* Generated by software containing ST-Developer
 * from STEP Tools, Inc. (www.steptools.com) 
 */

FILE_DESCRIPTION(
/* description */ (''),
/* implementation_level */ '2;1');

FILE_NAME(
/* name */ 'part5-mounting_bracket.stp',
/* time_stamp */ '2024-03-02T15:22:07+01:00',
/* author */ ('Utente'),
/* organization */ (''),
/* preprocessor_version */ 'ST-DEVELOPER v20',
/* originating_system */ 'Autodesk Inventor 2024',
/* authorisation */ '');

FILE_SCHEMA (('AUTOMOTIVE_DESIGN { 1 0 10303 214 3 1 1 }'));
ENDSEC;

DATA;
#10=MECHANICAL_DESIGN_GEOMETRIC_PRESENTATION_REPRESENTATION('',(#13),#674);
#11=SHAPE_REPRESENTATION_RELATIONSHIP('SRR','None',#681,#12);
#12=ADVANCED_BREP_SHAPE_REPRESENTATION('',(#14),#673);
#13=STYLED_ITEM('',(#690),#14);
#14=MANIFOLD_SOLID_BREP('Solido1',#397);
#15=FACE_BOUND('',#56,.T.);
#16=FACE_BOUND('',#61,.T.);
#17=FACE_BOUND('',#70,.T.);
#18=FACE_BOUND('',#76,.T.);
#19=PLANE('',#423);
#20=PLANE('',#424);
#21=PLANE('',#432);
#22=PLANE('',#433);
#23=PLANE('',#438);
#24=PLANE('',#439);
#25=PLANE('',#440);
#26=PLANE('',#441);
#27=PLANE('',#442);
#28=PLANE('',#445);
#29=PLANE('',#446);
#30=PLANE('',#449);
#31=PLANE('',#450);
#32=PLANE('',#451);
#33=FACE_OUTER_BOUND('',#53,.T.);
#34=FACE_OUTER_BOUND('',#54,.T.);
#35=FACE_OUTER_BOUND('',#55,.T.);
#36=FACE_OUTER_BOUND('',#57,.T.);
#37=FACE_OUTER_BOUND('',#58,.T.);
#38=FACE_OUTER_BOUND('',#59,.T.);
#39=FACE_OUTER_BOUND('',#60,.T.);
#40=FACE_OUTER_BOUND('',#62,.T.);
#41=FACE_OUTER_BOUND('',#63,.T.);
#42=FACE_OUTER_BOUND('',#64,.T.);
#43=FACE_OUTER_BOUND('',#65,.T.);
#44=FACE_OUTER_BOUND('',#66,.T.);
#45=FACE_OUTER_BOUND('',#67,.T.);
#46=FACE_OUTER_BOUND('',#68,.T.);
#47=FACE_OUTER_BOUND('',#69,.T.);
#48=FACE_OUTER_BOUND('',#71,.T.);
#49=FACE_OUTER_BOUND('',#72,.T.);
#50=FACE_OUTER_BOUND('',#73,.T.);
#51=FACE_OUTER_BOUND('',#74,.T.);
#52=FACE_OUTER_BOUND('',#75,.T.);
#53=EDGE_LOOP('',(#263,#264,#265,#266));
#54=EDGE_LOOP('',(#267,#268,#269,#270));
#55=EDGE_LOOP('',(#271,#272,#273,#274,#275,#276));
#56=EDGE_LOOP('',(#277));
#57=EDGE_LOOP('',(#278,#279,#280,#281));
#58=EDGE_LOOP('',(#282,#283,#284,#285));
#59=EDGE_LOOP('',(#286,#287,#288,#289));
#60=EDGE_LOOP('',(#290,#291,#292,#293,#294,#295));
#61=EDGE_LOOP('',(#296));
#62=EDGE_LOOP('',(#297,#298,#299,#300));
#63=EDGE_LOOP('',(#301,#302,#303,#304));
#64=EDGE_LOOP('',(#305,#306,#307,#308));
#65=EDGE_LOOP('',(#309,#310,#311,#312));
#66=EDGE_LOOP('',(#313,#314,#315,#316));
#67=EDGE_LOOP('',(#317,#318,#319,#320));
#68=EDGE_LOOP('',(#321,#322,#323,#324));
#69=EDGE_LOOP('',(#325,#326,#327,#328,#329,#330));
#70=EDGE_LOOP('',(#331));
#71=EDGE_LOOP('',(#332,#333,#334,#335));
#72=EDGE_LOOP('',(#336,#337,#338,#339));
#73=EDGE_LOOP('',(#340,#341,#342,#343,#344,#345,#346,#347,#348,#349,#350,
#351));
#74=EDGE_LOOP('',(#352,#353,#354,#355,#356,#357,#358,#359,#360,#361,#362,
#363));
#75=EDGE_LOOP('',(#364,#365,#366,#367,#368,#369));
#76=EDGE_LOOP('',(#370));
#77=LINE('',#566,#119);
#78=LINE('',#569,#120);
#79=LINE('',#572,#121);
#80=LINE('',#574,#122);
#81=LINE('',#575,#123);
#82=LINE('',#578,#124);
#83=LINE('',#580,#125);
#84=LINE('',#582,#126);
#85=LINE('',#588,#127);
#86=LINE('',#595,#128);
#87=LINE('',#598,#129);
#88=LINE('',#601,#130);
#89=LINE('',#603,#131);
#90=LINE('',#604,#132);
#91=LINE('',#607,#133);
#92=LINE('',#609,#134);
#93=LINE('',#611,#135);
#94=LINE('',#618,#136);
#95=LINE('',#622,#137);
#96=LINE('',#624,#138);
#97=LINE('',#626,#139);
#98=LINE('',#627,#140);
#99=LINE('',#630,#141);
#100=LINE('',#632,#142);
#101=LINE('',#633,#143);
#102=LINE('',#635,#144);
#103=LINE('',#636,#145);
#104=LINE('',#640,#146);
#105=LINE('',#642,#147);
#106=LINE('',#644,#148);
#107=LINE('',#645,#149);
#108=LINE('',#647,#150);
#109=LINE('',#648,#151);
#110=LINE('',#652,#152);
#111=LINE('',#654,#153);
#112=LINE('',#655,#154);
#113=LINE('',#659,#155);
#114=LINE('',#660,#156);
#115=LINE('',#661,#157);
#116=LINE('',#664,#158);
#117=LINE('',#667,#159);
#118=LINE('',#669,#160);
#119=VECTOR('',#458,10.);
#120=VECTOR('',#461,10.);
#121=VECTOR('',#464,10.);
#122=VECTOR('',#465,10.);
#123=VECTOR('',#466,10.);
#124=VECTOR('',#469,10.);
#125=VECTOR('',#470,10.);
#126=VECTOR('',#471,10.);
#127=VECTOR('',#478,10.);
#128=VECTOR('',#485,10.);
#129=VECTOR('',#488,10.);
#130=VECTOR('',#491,10.);
#131=VECTOR('',#492,10.);
#132=VECTOR('',#493,10.);
#133=VECTOR('',#496,10.);
#134=VECTOR('',#497,10.);
#135=VECTOR('',#498,10.);
#136=VECTOR('',#507,10.);
#137=VECTOR('',#510,10.);
#138=VECTOR('',#511,10.);
#139=VECTOR('',#512,10.);
#140=VECTOR('',#513,10.);
#141=VECTOR('',#516,10.);
#142=VECTOR('',#517,10.);
#143=VECTOR('',#518,10.);
#144=VECTOR('',#521,10.);
#145=VECTOR('',#522,10.);
#146=VECTOR('',#525,10.);
#147=VECTOR('',#526,10.);
#148=VECTOR('',#527,10.);
#149=VECTOR('',#528,10.);
#150=VECTOR('',#531,10.);
#151=VECTOR('',#532,10.);
#152=VECTOR('',#537,1.75);
#153=VECTOR('',#540,10.);
#154=VECTOR('',#541,10.);
#155=VECTOR('',#544,10.);
#156=VECTOR('',#545,10.);
#157=VECTOR('',#546,10.);
#158=VECTOR('',#549,1.75);
#159=VECTOR('',#554,10.);
#160=VECTOR('',#557,10.);
#161=CIRCLE('',#421,1.5);
#162=CIRCLE('',#422,1.5);
#163=CIRCLE('',#425,1.5);
#164=CIRCLE('',#426,1.75);
#165=CIRCLE('',#428,1.5);
#166=CIRCLE('',#430,1.5);
#167=CIRCLE('',#431,1.5);
#168=CIRCLE('',#434,1.5);
#169=CIRCLE('',#435,1.75);
#170=CIRCLE('',#437,1.5);
#171=CIRCLE('',#444,1.75);
#172=CIRCLE('',#448,1.75);
#173=VERTEX_POINT('',#562);
#174=VERTEX_POINT('',#563);
#175=VERTEX_POINT('',#565);
#176=VERTEX_POINT('',#567);
#177=VERTEX_POINT('',#571);
#178=VERTEX_POINT('',#573);
#179=VERTEX_POINT('',#577);
#180=VERTEX_POINT('',#579);
#181=VERTEX_POINT('',#581);
#182=VERTEX_POINT('',#584);
#183=VERTEX_POINT('',#587);
#184=VERTEX_POINT('',#591);
#185=VERTEX_POINT('',#592);
#186=VERTEX_POINT('',#594);
#187=VERTEX_POINT('',#596);
#188=VERTEX_POINT('',#600);
#189=VERTEX_POINT('',#602);
#190=VERTEX_POINT('',#606);
#191=VERTEX_POINT('',#608);
#192=VERTEX_POINT('',#610);
#193=VERTEX_POINT('',#613);
#194=VERTEX_POINT('',#616);
#195=VERTEX_POINT('',#620);
#196=VERTEX_POINT('',#621);
#197=VERTEX_POINT('',#623);
#198=VERTEX_POINT('',#625);
#199=VERTEX_POINT('',#629);
#200=VERTEX_POINT('',#631);
#201=VERTEX_POINT('',#638);
#202=VERTEX_POINT('',#639);
#203=VERTEX_POINT('',#641);
#204=VERTEX_POINT('',#643);
#205=VERTEX_POINT('',#650);
#206=VERTEX_POINT('',#657);
#207=VERTEX_POINT('',#658);
#208=VERTEX_POINT('',#663);
#209=EDGE_CURVE('',#173,#174,#161,.T.);
#210=EDGE_CURVE('',#174,#175,#77,.T.);
#211=EDGE_CURVE('',#175,#176,#162,.T.);
#212=EDGE_CURVE('',#176,#173,#78,.T.);
#213=EDGE_CURVE('',#177,#174,#79,.T.);
#214=EDGE_CURVE('',#178,#177,#80,.T.);
#215=EDGE_CURVE('',#178,#175,#81,.T.);
#216=EDGE_CURVE('',#173,#179,#82,.T.);
#217=EDGE_CURVE('',#179,#180,#83,.T.);
#218=EDGE_CURVE('',#181,#180,#84,.T.);
#219=EDGE_CURVE('',#177,#181,#163,.T.);
#220=EDGE_CURVE('',#182,#182,#164,.T.);
#221=EDGE_CURVE('',#181,#183,#85,.T.);
#222=EDGE_CURVE('',#183,#178,#165,.T.);
#223=EDGE_CURVE('',#184,#185,#166,.T.);
#224=EDGE_CURVE('',#185,#186,#86,.T.);
#225=EDGE_CURVE('',#186,#187,#167,.T.);
#226=EDGE_CURVE('',#187,#184,#87,.T.);
#227=EDGE_CURVE('',#187,#188,#88,.T.);
#228=EDGE_CURVE('',#189,#188,#89,.T.);
#229=EDGE_CURVE('',#184,#189,#90,.T.);
#230=EDGE_CURVE('',#186,#190,#91,.T.);
#231=EDGE_CURVE('',#191,#190,#92,.T.);
#232=EDGE_CURVE('',#192,#191,#93,.T.);
#233=EDGE_CURVE('',#188,#192,#168,.T.);
#234=EDGE_CURVE('',#193,#193,#169,.T.);
#235=EDGE_CURVE('',#194,#189,#170,.T.);
#236=EDGE_CURVE('',#192,#194,#94,.T.);
#237=EDGE_CURVE('',#195,#196,#95,.T.);
#238=EDGE_CURVE('',#195,#197,#96,.T.);
#239=EDGE_CURVE('',#198,#197,#97,.T.);
#240=EDGE_CURVE('',#196,#198,#98,.T.);
#241=EDGE_CURVE('',#179,#199,#99,.T.);
#242=EDGE_CURVE('',#200,#199,#100,.T.);
#243=EDGE_CURVE('',#180,#200,#101,.T.);
#244=EDGE_CURVE('',#197,#200,#102,.T.);
#245=EDGE_CURVE('',#199,#198,#103,.T.);
#246=EDGE_CURVE('',#201,#202,#104,.T.);
#247=EDGE_CURVE('',#203,#201,#105,.T.);
#248=EDGE_CURVE('',#204,#203,#106,.T.);
#249=EDGE_CURVE('',#202,#204,#107,.T.);
#250=EDGE_CURVE('',#203,#191,#108,.T.);
#251=EDGE_CURVE('',#190,#204,#109,.T.);
#252=EDGE_CURVE('',#205,#205,#171,.T.);
#253=EDGE_CURVE('',#205,#193,#110,.T.);
#254=EDGE_CURVE('',#194,#195,#111,.T.);
#255=EDGE_CURVE('',#185,#196,#112,.T.);
#256=EDGE_CURVE('',#206,#207,#113,.T.);
#257=EDGE_CURVE('',#207,#201,#114,.T.);
#258=EDGE_CURVE('',#202,#206,#115,.T.);
#259=EDGE_CURVE('',#182,#208,#116,.T.);
#260=EDGE_CURVE('',#208,#208,#172,.T.);
#261=EDGE_CURVE('',#183,#207,#117,.T.);
#262=EDGE_CURVE('',#176,#206,#118,.T.);
#263=ORIENTED_EDGE('',*,*,#209,.T.);
#264=ORIENTED_EDGE('',*,*,#210,.T.);
#265=ORIENTED_EDGE('',*,*,#211,.T.);
#266=ORIENTED_EDGE('',*,*,#212,.T.);
#267=ORIENTED_EDGE('',*,*,#210,.F.);
#268=ORIENTED_EDGE('',*,*,#213,.F.);
#269=ORIENTED_EDGE('',*,*,#214,.F.);
#270=ORIENTED_EDGE('',*,*,#215,.T.);
#271=ORIENTED_EDGE('',*,*,#209,.F.);
#272=ORIENTED_EDGE('',*,*,#216,.T.);
#273=ORIENTED_EDGE('',*,*,#217,.T.);
#274=ORIENTED_EDGE('',*,*,#218,.F.);
#275=ORIENTED_EDGE('',*,*,#219,.F.);
#276=ORIENTED_EDGE('',*,*,#213,.T.);
#277=ORIENTED_EDGE('',*,*,#220,.T.);
#278=ORIENTED_EDGE('',*,*,#219,.T.);
#279=ORIENTED_EDGE('',*,*,#221,.T.);
#280=ORIENTED_EDGE('',*,*,#222,.T.);
#281=ORIENTED_EDGE('',*,*,#214,.T.);
#282=ORIENTED_EDGE('',*,*,#223,.T.);
#283=ORIENTED_EDGE('',*,*,#224,.T.);
#284=ORIENTED_EDGE('',*,*,#225,.T.);
#285=ORIENTED_EDGE('',*,*,#226,.T.);
#286=ORIENTED_EDGE('',*,*,#226,.F.);
#287=ORIENTED_EDGE('',*,*,#227,.T.);
#288=ORIENTED_EDGE('',*,*,#228,.F.);
#289=ORIENTED_EDGE('',*,*,#229,.F.);
#290=ORIENTED_EDGE('',*,*,#225,.F.);
#291=ORIENTED_EDGE('',*,*,#230,.T.);
#292=ORIENTED_EDGE('',*,*,#231,.F.);
#293=ORIENTED_EDGE('',*,*,#232,.F.);
#294=ORIENTED_EDGE('',*,*,#233,.F.);
#295=ORIENTED_EDGE('',*,*,#227,.F.);
#296=ORIENTED_EDGE('',*,*,#234,.F.);
#297=ORIENTED_EDGE('',*,*,#235,.T.);
#298=ORIENTED_EDGE('',*,*,#228,.T.);
#299=ORIENTED_EDGE('',*,*,#233,.T.);
#300=ORIENTED_EDGE('',*,*,#236,.T.);
#301=ORIENTED_EDGE('',*,*,#237,.F.);
#302=ORIENTED_EDGE('',*,*,#238,.T.);
#303=ORIENTED_EDGE('',*,*,#239,.F.);
#304=ORIENTED_EDGE('',*,*,#240,.F.);
#305=ORIENTED_EDGE('',*,*,#217,.F.);
#306=ORIENTED_EDGE('',*,*,#241,.T.);
#307=ORIENTED_EDGE('',*,*,#242,.F.);
#308=ORIENTED_EDGE('',*,*,#243,.F.);
#309=ORIENTED_EDGE('',*,*,#244,.T.);
#310=ORIENTED_EDGE('',*,*,#242,.T.);
#311=ORIENTED_EDGE('',*,*,#245,.T.);
#312=ORIENTED_EDGE('',*,*,#239,.T.);
#313=ORIENTED_EDGE('',*,*,#246,.F.);
#314=ORIENTED_EDGE('',*,*,#247,.F.);
#315=ORIENTED_EDGE('',*,*,#248,.F.);
#316=ORIENTED_EDGE('',*,*,#249,.F.);
#317=ORIENTED_EDGE('',*,*,#248,.T.);
#318=ORIENTED_EDGE('',*,*,#250,.T.);
#319=ORIENTED_EDGE('',*,*,#231,.T.);
#320=ORIENTED_EDGE('',*,*,#251,.T.);
#321=ORIENTED_EDGE('',*,*,#252,.F.);
#322=ORIENTED_EDGE('',*,*,#253,.T.);
#323=ORIENTED_EDGE('',*,*,#234,.T.);
#324=ORIENTED_EDGE('',*,*,#253,.F.);
#325=ORIENTED_EDGE('',*,*,#223,.F.);
#326=ORIENTED_EDGE('',*,*,#229,.T.);
#327=ORIENTED_EDGE('',*,*,#235,.F.);
#328=ORIENTED_EDGE('',*,*,#254,.T.);
#329=ORIENTED_EDGE('',*,*,#237,.T.);
#330=ORIENTED_EDGE('',*,*,#255,.F.);
#331=ORIENTED_EDGE('',*,*,#252,.T.);
#332=ORIENTED_EDGE('',*,*,#256,.T.);
#333=ORIENTED_EDGE('',*,*,#257,.T.);
#334=ORIENTED_EDGE('',*,*,#246,.T.);
#335=ORIENTED_EDGE('',*,*,#258,.T.);
#336=ORIENTED_EDGE('',*,*,#220,.F.);
#337=ORIENTED_EDGE('',*,*,#259,.T.);
#338=ORIENTED_EDGE('',*,*,#260,.T.);
#339=ORIENTED_EDGE('',*,*,#259,.F.);
#340=ORIENTED_EDGE('',*,*,#221,.F.);
#341=ORIENTED_EDGE('',*,*,#218,.T.);
#342=ORIENTED_EDGE('',*,*,#243,.T.);
#343=ORIENTED_EDGE('',*,*,#244,.F.);
#344=ORIENTED_EDGE('',*,*,#238,.F.);
#345=ORIENTED_EDGE('',*,*,#254,.F.);
#346=ORIENTED_EDGE('',*,*,#236,.F.);
#347=ORIENTED_EDGE('',*,*,#232,.T.);
#348=ORIENTED_EDGE('',*,*,#250,.F.);
#349=ORIENTED_EDGE('',*,*,#247,.T.);
#350=ORIENTED_EDGE('',*,*,#257,.F.);
#351=ORIENTED_EDGE('',*,*,#261,.F.);
#352=ORIENTED_EDGE('',*,*,#212,.F.);
#353=ORIENTED_EDGE('',*,*,#262,.T.);
#354=ORIENTED_EDGE('',*,*,#258,.F.);
#355=ORIENTED_EDGE('',*,*,#249,.T.);
#356=ORIENTED_EDGE('',*,*,#251,.F.);
#357=ORIENTED_EDGE('',*,*,#230,.F.);
#358=ORIENTED_EDGE('',*,*,#224,.F.);
#359=ORIENTED_EDGE('',*,*,#255,.T.);
#360=ORIENTED_EDGE('',*,*,#240,.T.);
#361=ORIENTED_EDGE('',*,*,#245,.F.);
#362=ORIENTED_EDGE('',*,*,#241,.F.);
#363=ORIENTED_EDGE('',*,*,#216,.F.);
#364=ORIENTED_EDGE('',*,*,#211,.F.);
#365=ORIENTED_EDGE('',*,*,#215,.F.);
#366=ORIENTED_EDGE('',*,*,#222,.F.);
#367=ORIENTED_EDGE('',*,*,#261,.T.);
#368=ORIENTED_EDGE('',*,*,#256,.F.);
#369=ORIENTED_EDGE('',*,*,#262,.F.);
#370=ORIENTED_EDGE('',*,*,#260,.F.);
#371=CYLINDRICAL_SURFACE('',#420,1.5);
#372=CYLINDRICAL_SURFACE('',#427,1.5);
#373=CYLINDRICAL_SURFACE('',#429,1.5);
#374=CYLINDRICAL_SURFACE('',#436,1.5);
#375=CYLINDRICAL_SURFACE('',#443,1.75);
#376=CYLINDRICAL_SURFACE('',#447,1.75);
#377=ADVANCED_FACE('',(#33),#371,.T.);
#378=ADVANCED_FACE('',(#34),#19,.T.);
#379=ADVANCED_FACE('',(#35,#15),#20,.T.);
#380=ADVANCED_FACE('',(#36),#372,.T.);
#381=ADVANCED_FACE('',(#37),#373,.T.);
#382=ADVANCED_FACE('',(#38),#21,.T.);
#383=ADVANCED_FACE('',(#39,#16),#22,.F.);
#384=ADVANCED_FACE('',(#40),#374,.T.);
#385=ADVANCED_FACE('',(#41),#23,.T.);
#386=ADVANCED_FACE('',(#42),#24,.T.);
#387=ADVANCED_FACE('',(#43),#25,.T.);
#388=ADVANCED_FACE('',(#44),#26,.F.);
#389=ADVANCED_FACE('',(#45),#27,.T.);
#390=ADVANCED_FACE('',(#46),#375,.F.);
#391=ADVANCED_FACE('',(#47,#17),#28,.T.);
#392=ADVANCED_FACE('',(#48),#29,.T.);
#393=ADVANCED_FACE('',(#49),#376,.F.);
#394=ADVANCED_FACE('',(#50),#30,.T.);
#395=ADVANCED_FACE('',(#51),#31,.T.);
#396=ADVANCED_FACE('',(#52,#18),#32,.F.);
#397=CLOSED_SHELL('',(#377,#378,#379,#380,#381,#382,#383,#384,#385,#386,
#387,#388,#389,#390,#391,#392,#393,#394,#395,#396));
#398=DERIVED_UNIT_ELEMENT(#401,1.);
#399=DERIVED_UNIT_ELEMENT(#676,-3.);
#400=DIMENSIONAL_EXPONENTS(0.,1.,0.,0.,0.,0.,0.);
#401=(
CONVERSION_BASED_UNIT('gram',#403)
MASS_UNIT()
NAMED_UNIT(#400)
);
#402=(
MASS_UNIT()
NAMED_UNIT(*)
SI_UNIT(.KILO.,.GRAM.)
);
#403=MASS_MEASURE_WITH_UNIT(MASS_MEASURE(0.001),#402);
#404=DERIVED_UNIT((#398,#399));
#405=MEASURE_REPRESENTATION_ITEM('density measure',
POSITIVE_RATIO_MEASURE(1.),#404);
#406=PROPERTY_DEFINITION_REPRESENTATION(#411,#408);
#407=PROPERTY_DEFINITION_REPRESENTATION(#412,#409);
#408=REPRESENTATION('material name',(#410),#673);
#409=REPRESENTATION('density',(#405),#673);
#410=DESCRIPTIVE_REPRESENTATION_ITEM('Generico','Generico');
#411=PROPERTY_DEFINITION('material property','material name',#683);
#412=PROPERTY_DEFINITION('material property','density of part',#683);
#413=DATE_TIME_ROLE('creation_date');
#414=APPLIED_DATE_AND_TIME_ASSIGNMENT(#415,#413,(#683));
#415=DATE_AND_TIME(#416,#417);
#416=CALENDAR_DATE(2022,6,9);
#417=LOCAL_TIME(0,0,0.,#418);
#418=COORDINATED_UNIVERSAL_TIME_OFFSET(0,0,.BEHIND.);
#419=AXIS2_PLACEMENT_3D('',#560,#452,#453);
#420=AXIS2_PLACEMENT_3D('',#561,#454,#455);
#421=AXIS2_PLACEMENT_3D('',#564,#456,#457);
#422=AXIS2_PLACEMENT_3D('',#568,#459,#460);
#423=AXIS2_PLACEMENT_3D('',#570,#462,#463);
#424=AXIS2_PLACEMENT_3D('',#576,#467,#468);
#425=AXIS2_PLACEMENT_3D('',#583,#472,#473);
#426=AXIS2_PLACEMENT_3D('',#585,#474,#475);
#427=AXIS2_PLACEMENT_3D('',#586,#476,#477);
#428=AXIS2_PLACEMENT_3D('',#589,#479,#480);
#429=AXIS2_PLACEMENT_3D('',#590,#481,#482);
#430=AXIS2_PLACEMENT_3D('',#593,#483,#484);
#431=AXIS2_PLACEMENT_3D('',#597,#486,#487);
#432=AXIS2_PLACEMENT_3D('',#599,#489,#490);
#433=AXIS2_PLACEMENT_3D('',#605,#494,#495);
#434=AXIS2_PLACEMENT_3D('',#612,#499,#500);
#435=AXIS2_PLACEMENT_3D('',#614,#501,#502);
#436=AXIS2_PLACEMENT_3D('',#615,#503,#504);
#437=AXIS2_PLACEMENT_3D('',#617,#505,#506);
#438=AXIS2_PLACEMENT_3D('',#619,#508,#509);
#439=AXIS2_PLACEMENT_3D('',#628,#514,#515);
#440=AXIS2_PLACEMENT_3D('',#634,#519,#520);
#441=AXIS2_PLACEMENT_3D('',#637,#523,#524);
#442=AXIS2_PLACEMENT_3D('',#646,#529,#530);
#443=AXIS2_PLACEMENT_3D('',#649,#533,#534);
#444=AXIS2_PLACEMENT_3D('',#651,#535,#536);
#445=AXIS2_PLACEMENT_3D('',#653,#538,#539);
#446=AXIS2_PLACEMENT_3D('',#656,#542,#543);
#447=AXIS2_PLACEMENT_3D('',#662,#547,#548);
#448=AXIS2_PLACEMENT_3D('',#665,#550,#551);
#449=AXIS2_PLACEMENT_3D('',#666,#552,#553);
#450=AXIS2_PLACEMENT_3D('',#668,#555,#556);
#451=AXIS2_PLACEMENT_3D('',#670,#558,#559);
#452=DIRECTION('axis',(0.,0.,1.));
#453=DIRECTION('refdir',(1.,0.,0.));
#454=DIRECTION('center_axis',(0.,1.,0.));
#455=DIRECTION('ref_axis',(-0.707106781186547,0.,-0.707106781186548));
#456=DIRECTION('center_axis',(0.,-1.,0.));
#457=DIRECTION('ref_axis',(-0.707106781186547,0.,-0.707106781186548));
#458=DIRECTION('',(0.,-1.,0.));
#459=DIRECTION('center_axis',(0.,1.,0.));
#460=DIRECTION('ref_axis',(-0.707106781186547,0.,-0.707106781186548));
#461=DIRECTION('',(0.,1.,0.));
#462=DIRECTION('center_axis',(0.,0.,-1.));
#463=DIRECTION('ref_axis',(-1.,0.,0.));
#464=DIRECTION('',(-1.,0.,0.));
#465=DIRECTION('',(0.,1.,0.));
#466=DIRECTION('',(-1.,0.,0.));
#467=DIRECTION('center_axis',(0.,1.,0.));
#468=DIRECTION('ref_axis',(0.,0.,1.));
#469=DIRECTION('',(0.,0.,1.));
#470=DIRECTION('',(1.,0.,0.));
#471=DIRECTION('',(0.,0.,1.));
#472=DIRECTION('center_axis',(0.,-1.,0.));
#473=DIRECTION('ref_axis',(0.707106781186547,0.,-0.707106781186548));
#474=DIRECTION('center_axis',(0.,-1.,0.));
#475=DIRECTION('ref_axis',(1.,0.,0.));
#476=DIRECTION('center_axis',(0.,1.,0.));
#477=DIRECTION('ref_axis',(0.707106781186547,0.,-0.707106781186548));
#478=DIRECTION('',(0.,-1.,0.));
#479=DIRECTION('center_axis',(0.,1.,0.));
#480=DIRECTION('ref_axis',(0.707106781186547,0.,-0.707106781186548));
#481=DIRECTION('center_axis',(0.,1.,0.));
#482=DIRECTION('ref_axis',(-0.707106781186548,0.,0.707106781186547));
#483=DIRECTION('center_axis',(0.,-1.,0.));
#484=DIRECTION('ref_axis',(-0.707106781186548,0.,0.707106781186547));
#485=DIRECTION('',(0.,-1.,0.));
#486=DIRECTION('center_axis',(0.,1.,0.));
#487=DIRECTION('ref_axis',(-0.707106781186548,0.,0.707106781186547));
#488=DIRECTION('',(0.,1.,0.));
#489=DIRECTION('center_axis',(0.,0.,1.));
#490=DIRECTION('ref_axis',(1.,0.,0.));
#491=DIRECTION('',(1.,0.,0.));
#492=DIRECTION('',(0.,-1.,0.));
#493=DIRECTION('',(1.,0.,0.));
#494=DIRECTION('center_axis',(0.,1.,0.));
#495=DIRECTION('ref_axis',(0.,0.,1.));
#496=DIRECTION('',(-3.70074341541719E-16,0.,-1.));
#497=DIRECTION('',(-1.,0.,3.70074341541719E-16));
#498=DIRECTION('',(0.,0.,-1.));
#499=DIRECTION('center_axis',(0.,1.,0.));
#500=DIRECTION('ref_axis',(0.707106781186547,0.,0.707106781186548));
#501=DIRECTION('center_axis',(0.,-1.,0.));
#502=DIRECTION('ref_axis',(1.,0.,0.));
#503=DIRECTION('center_axis',(0.,1.,0.));
#504=DIRECTION('ref_axis',(0.707106781186547,0.,0.707106781186548));
#505=DIRECTION('center_axis',(0.,-1.,0.));
#506=DIRECTION('ref_axis',(0.707106781186547,0.,0.707106781186548));
#507=DIRECTION('',(0.,1.,0.));
#508=DIRECTION('center_axis',(0.,0.,1.));
#509=DIRECTION('ref_axis',(1.,0.,0.));
#510=DIRECTION('',(-1.,0.,0.));
#511=DIRECTION('',(0.,1.,0.));
#512=DIRECTION('',(1.,0.,0.));
#513=DIRECTION('',(0.,1.,0.));
#514=DIRECTION('center_axis',(0.,0.,-1.));
#515=DIRECTION('ref_axis',(-1.,0.,0.));
#516=DIRECTION('',(0.,1.,0.));
#517=DIRECTION('',(-1.,0.,0.));
#518=DIRECTION('',(0.,1.,0.));
#519=DIRECTION('center_axis',(0.,1.,0.));
#520=DIRECTION('ref_axis',(0.,0.,1.));
#521=DIRECTION('',(0.,0.,-1.));
#522=DIRECTION('',(0.,0.,1.));
#523=DIRECTION('center_axis',(0.,1.,0.));
#524=DIRECTION('ref_axis',(0.,0.,1.));
#525=DIRECTION('',(-1.,-9.25185853854297E-17,0.));
#526=DIRECTION('',(0.,0.,-1.));
#527=DIRECTION('',(1.,0.,-3.70074341541719E-16));
#528=DIRECTION('',(0.,0.,1.));
#529=DIRECTION('center_axis',(-3.70074341541719E-16,0.,-1.));
#530=DIRECTION('ref_axis',(-1.,0.,3.70074341541719E-16));
#531=DIRECTION('',(-1.8503717077086E-16,-1.,6.84775091337684E-32));
#532=DIRECTION('',(0.,1.,0.));
#533=DIRECTION('center_axis',(0.,1.,0.));
#534=DIRECTION('ref_axis',(1.,0.,0.));
#535=DIRECTION('center_axis',(0.,-1.,0.));
#536=DIRECTION('ref_axis',(1.,0.,0.));
#537=DIRECTION('',(0.,-1.,0.));
#538=DIRECTION('center_axis',(0.,1.,0.));
#539=DIRECTION('ref_axis',(0.,0.,1.));
#540=DIRECTION('',(0.,0.,-1.));
#541=DIRECTION('',(-3.70074341541719E-16,0.,-1.));
#542=DIRECTION('center_axis',(0.,0.,1.));
#543=DIRECTION('ref_axis',(1.,0.,0.));
#544=DIRECTION('',(1.,0.,0.));
#545=DIRECTION('',(0.,1.,0.));
#546=DIRECTION('',(2.77555756156289E-16,-1.,0.));
#547=DIRECTION('center_axis',(0.,1.,0.));
#548=DIRECTION('ref_axis',(1.,0.,0.));
#549=DIRECTION('',(0.,-1.,0.));
#550=DIRECTION('center_axis',(0.,-1.,0.));
#551=DIRECTION('ref_axis',(1.,0.,0.));
#552=DIRECTION('center_axis',(1.,0.,0.));
#553=DIRECTION('ref_axis',(0.,0.,-1.));
#554=DIRECTION('',(0.,0.,1.));
#555=DIRECTION('center_axis',(-1.,0.,0.));
#556=DIRECTION('ref_axis',(0.,0.,1.));
#557=DIRECTION('',(0.,0.,1.));
#558=DIRECTION('center_axis',(0.,1.,0.));
#559=DIRECTION('ref_axis',(0.,0.,1.));
#560=CARTESIAN_POINT('',(0.,0.,0.));
#561=CARTESIAN_POINT('Origin',(-4.5,0.,-22.5));
#562=CARTESIAN_POINT('',(-6.,2.,-22.5));
#563=CARTESIAN_POINT('',(-4.5,2.,-24.));
#564=CARTESIAN_POINT('Origin',(-4.5,2.,-22.5));
#565=CARTESIAN_POINT('',(-4.5,0.,-24.));
#566=CARTESIAN_POINT('',(-4.5,0.,-24.));
#567=CARTESIAN_POINT('',(-6.,0.,-22.5));
#568=CARTESIAN_POINT('Origin',(-4.5,0.,-22.5));
#569=CARTESIAN_POINT('',(-6.,0.,-22.5));
#570=CARTESIAN_POINT('Origin',(0.,0.,-24.));
#571=CARTESIAN_POINT('',(-1.5,2.,-24.));
#572=CARTESIAN_POINT('',(0.,2.,-24.));
#573=CARTESIAN_POINT('',(-1.5,0.,-24.));
#574=CARTESIAN_POINT('',(-1.5,0.,-24.));
#575=CARTESIAN_POINT('',(0.,0.,-24.));
#576=CARTESIAN_POINT('Origin',(-3.,2.,-20.5));
#577=CARTESIAN_POINT('',(-6.,2.,-17.));
#578=CARTESIAN_POINT('',(-6.,2.,-24.));
#579=CARTESIAN_POINT('',(0.,2.,-17.));
#580=CARTESIAN_POINT('',(-1.5,2.,-17.));
#581=CARTESIAN_POINT('',(0.,2.,-22.5));
#582=CARTESIAN_POINT('',(0.,2.,-17.));
#583=CARTESIAN_POINT('Origin',(-1.5,2.,-22.5));
#584=CARTESIAN_POINT('',(-4.75,2.,-20.5));
#585=CARTESIAN_POINT('Origin',(-3.,2.,-20.5));
#586=CARTESIAN_POINT('Origin',(-1.5,0.,-22.5));
#587=CARTESIAN_POINT('',(0.,0.,-22.5));
#588=CARTESIAN_POINT('',(0.,0.,-22.5));
#589=CARTESIAN_POINT('Origin',(-1.5,0.,-22.5));
#590=CARTESIAN_POINT('Origin',(-4.5,0.,-1.5));
#591=CARTESIAN_POINT('',(-4.5,2.,0.));
#592=CARTESIAN_POINT('',(-6.,2.,-1.5));
#593=CARTESIAN_POINT('Origin',(-4.5,2.,-1.5));
#594=CARTESIAN_POINT('',(-6.,0.,-1.5));
#595=CARTESIAN_POINT('',(-6.,0.,-1.5));
#596=CARTESIAN_POINT('',(-4.5,0.,0.));
#597=CARTESIAN_POINT('Origin',(-4.5,0.,-1.5));
#598=CARTESIAN_POINT('',(-4.5,0.,0.));
#599=CARTESIAN_POINT('Origin',(-6.,0.,0.));
#600=CARTESIAN_POINT('',(-1.5,0.,0.));
#601=CARTESIAN_POINT('',(-6.,0.,0.));
#602=CARTESIAN_POINT('',(-1.5,2.,0.));
#603=CARTESIAN_POINT('',(-1.5,0.,0.));
#604=CARTESIAN_POINT('',(-6.,2.,0.));
#605=CARTESIAN_POINT('Origin',(-3.,0.,-3.5));
#606=CARTESIAN_POINT('',(-6.,0.,-10.));
#607=CARTESIAN_POINT('',(-6.,0.,-7.));
#608=CARTESIAN_POINT('',(-3.33066907387547E-15,0.,-10.));
#609=CARTESIAN_POINT('',(-3.70074341541719E-15,0.,-10.));
#610=CARTESIAN_POINT('',(0.,0.,-1.5));
#611=CARTESIAN_POINT('',(0.,0.,0.));
#612=CARTESIAN_POINT('Origin',(-1.5,0.,-1.5));
#613=CARTESIAN_POINT('',(-4.75,0.,-3.5));
#614=CARTESIAN_POINT('Origin',(-3.,0.,-3.5));
#615=CARTESIAN_POINT('Origin',(-1.5,0.,-1.5));
#616=CARTESIAN_POINT('',(0.,2.,-1.5));
#617=CARTESIAN_POINT('Origin',(-1.5,2.,-1.5));
#618=CARTESIAN_POINT('',(0.,0.,-1.5));
#619=CARTESIAN_POINT('Origin',(-6.,2.,-7.));
#620=CARTESIAN_POINT('',(0.,2.,-7.));
#621=CARTESIAN_POINT('',(-6.,2.,-7.));
#622=CARTESIAN_POINT('',(-4.5,2.,-7.));
#623=CARTESIAN_POINT('',(0.,4.,-7.));
#624=CARTESIAN_POINT('',(0.,2.,-7.));
#625=CARTESIAN_POINT('',(-6.,4.,-7.));
#626=CARTESIAN_POINT('',(-6.,4.,-7.));
#627=CARTESIAN_POINT('',(-6.,2.,-7.));
#628=CARTESIAN_POINT('Origin',(0.,2.,-17.));
#629=CARTESIAN_POINT('',(-6.,4.,-17.));
#630=CARTESIAN_POINT('',(-6.,2.,-17.));
#631=CARTESIAN_POINT('',(0.,4.,-17.));
#632=CARTESIAN_POINT('',(0.,4.,-17.));
#633=CARTESIAN_POINT('',(0.,2.,-17.));
#634=CARTESIAN_POINT('Origin',(-3.,4.,-12.));
#635=CARTESIAN_POINT('',(0.,4.,-7.));
#636=CARTESIAN_POINT('',(-6.,4.,-17.));
#637=CARTESIAN_POINT('Origin',(-3.,2.,-12.));
#638=CARTESIAN_POINT('',(0.,2.,-14.));
#639=CARTESIAN_POINT('',(-6.,2.,-14.));
#640=CARTESIAN_POINT('',(0.,2.,-14.));
#641=CARTESIAN_POINT('',(-3.33066907387547E-15,2.,-10.));
#642=CARTESIAN_POINT('',(0.,2.,-7.));
#643=CARTESIAN_POINT('',(-6.,2.,-10.));
#644=CARTESIAN_POINT('',(-6.,2.,-10.));
#645=CARTESIAN_POINT('',(-6.,2.,-17.));
#646=CARTESIAN_POINT('Origin',(-3.,1.,-10.));
#647=CARTESIAN_POINT('',(-3.33066907387547E-15,2.,-10.));
#648=CARTESIAN_POINT('',(-6.,0.,-10.));
#649=CARTESIAN_POINT('Origin',(-3.,0.,-3.5));
#650=CARTESIAN_POINT('',(-4.75,2.,-3.5));
#651=CARTESIAN_POINT('Origin',(-3.,2.,-3.5));
#652=CARTESIAN_POINT('',(-4.75,0.,-3.5));
#653=CARTESIAN_POINT('Origin',(-3.,2.,-3.5));
#654=CARTESIAN_POINT('',(0.,2.,0.));
#655=CARTESIAN_POINT('',(-6.,2.,-7.));
#656=CARTESIAN_POINT('Origin',(-3.,1.,-14.));
#657=CARTESIAN_POINT('',(-6.,0.,-14.));
#658=CARTESIAN_POINT('',(0.,0.,-14.));
#659=CARTESIAN_POINT('',(-6.,0.,-14.));
#660=CARTESIAN_POINT('',(0.,0.,-14.));
#661=CARTESIAN_POINT('',(-6.,2.,-14.));
#662=CARTESIAN_POINT('Origin',(-3.,0.,-20.5));
#663=CARTESIAN_POINT('',(-4.75,0.,-20.5));
#664=CARTESIAN_POINT('',(-4.75,0.,-20.5));
#665=CARTESIAN_POINT('Origin',(-3.,0.,-20.5));
#666=CARTESIAN_POINT('Origin',(0.,0.,-17.));
#667=CARTESIAN_POINT('',(0.,0.,-17.));
#668=CARTESIAN_POINT('Origin',(-6.,0.,-24.));
#669=CARTESIAN_POINT('',(-6.,0.,-24.));
#670=CARTESIAN_POINT('Origin',(-3.,0.,-20.5));
#671=UNCERTAINTY_MEASURE_WITH_UNIT(LENGTH_MEASURE(0.01),#675,
'DISTANCE_ACCURACY_VALUE',
'Maximum model space distance between geometric entities at asserted c
onnectivities');
#672=UNCERTAINTY_MEASURE_WITH_UNIT(LENGTH_MEASURE(0.01),#675,
'DISTANCE_ACCURACY_VALUE',
'Maximum model space distance between geometric entities at asserted c
onnectivities');
#673=(
GEOMETRIC_REPRESENTATION_CONTEXT(3)
GLOBAL_UNCERTAINTY_ASSIGNED_CONTEXT((#671))
GLOBAL_UNIT_ASSIGNED_CONTEXT((#675,#677,#678))
REPRESENTATION_CONTEXT('','3D')
);
#674=(
GEOMETRIC_REPRESENTATION_CONTEXT(3)
GLOBAL_UNCERTAINTY_ASSIGNED_CONTEXT((#672))
GLOBAL_UNIT_ASSIGNED_CONTEXT((#675,#677,#678))
REPRESENTATION_CONTEXT('','3D')
);
#675=(
LENGTH_UNIT()
NAMED_UNIT(*)
SI_UNIT(.MILLI.,.METRE.)
);
#676=(
LENGTH_UNIT()
NAMED_UNIT(*)
SI_UNIT(.CENTI.,.METRE.)
);
#677=(
NAMED_UNIT(*)
PLANE_ANGLE_UNIT()
SI_UNIT($,.RADIAN.)
);
#678=(
NAMED_UNIT(*)
SI_UNIT($,.STERADIAN.)
SOLID_ANGLE_UNIT()
);
#679=SHAPE_DEFINITION_REPRESENTATION(#680,#681);
#680=PRODUCT_DEFINITION_SHAPE('',$,#683);
#681=SHAPE_REPRESENTATION('',(#419),#673);
#682=PRODUCT_DEFINITION_CONTEXT('part definition',#687,'design');
#683=PRODUCT_DEFINITION('parte 5 - staffa retro',
'part5-mounting_bracket',#684,#682);
#684=PRODUCT_DEFINITION_FORMATION('',$,#689);
#685=PRODUCT_RELATED_PRODUCT_CATEGORY('part5-mounting_bracket',
'part5-mounting_bracket',(#689));
#686=APPLICATION_PROTOCOL_DEFINITION('international standard',
'automotive_design',2009,#687);
#687=APPLICATION_CONTEXT(
'Core Data for Automotive Mechanical Design Process');
#688=PRODUCT_CONTEXT('part definition',#687,'mechanical');
#689=PRODUCT('parte 5 - staffa retro','part5-mounting_bracket',$,(#688));
#690=PRESENTATION_STYLE_ASSIGNMENT((#691));
#691=SURFACE_STYLE_USAGE(.BOTH.,#694);
#692=SURFACE_STYLE_RENDERING_WITH_PROPERTIES($,#698,(#693));
#693=SURFACE_STYLE_TRANSPARENT(0.);
#694=SURFACE_SIDE_STYLE('',(#695,#692));
#695=SURFACE_STYLE_FILL_AREA(#696);
#696=FILL_AREA_STYLE('',(#697));
#697=FILL_AREA_STYLE_COLOUR('',#698);
#698=COLOUR_RGB('',0.749019607843137,0.749019607843137,0.749019607843137);
ENDSEC;
END-ISO-10303-21;
