ISO-10303-21;
HEADER;
/* Generated by software containing ST-Developer
 * from STEP Tools, Inc. (www.steptools.com) 
 */

FILE_DESCRIPTION(
/* description */ (''),
/* implementation_level */ '2;1');

FILE_NAME(
/* name */ 'F-SICT-03.stp',
/* time_stamp */ '2024-05-04T16:19:52+02:00',
/* author */ ('Utente'),
/* organization */ (''),
/* preprocessor_version */ 'ST-DEVELOPER v20',
/* originating_system */ 'Autodesk Inventor 2024',
/* authorisation */ '');

FILE_SCHEMA (('AUTOMOTIVE_DESIGN { 1 0 10303 214 3 1 1 }'));
ENDSEC;

DATA;
#10=MECHANICAL_DESIGN_GEOMETRIC_PRESENTATION_REPRESENTATION('',(#13),#422);
#11=SHAPE_REPRESENTATION_RELATIONSHIP('SRR','None',#429,#12);
#12=ADVANCED_BREP_SHAPE_REPRESENTATION('',(#14),#421);
#13=STYLED_ITEM('',(#438),#14);
#14=MANIFOLD_SOLID_BREP('Solido2',#241);
#15=FACE_BOUND('',#45,.T.);
#16=FACE_BOUND('',#51,.T.);
#17=FACE_BOUND('',#57,.T.);
#18=FACE_BOUND('',#60,.T.);
#19=PLANE('',#267);
#20=PLANE('',#269);
#21=PLANE('',#275);
#22=PLANE('',#277);
#23=PLANE('',#278);
#24=PLANE('',#279);
#25=PLANE('',#282);
#26=PLANE('',#283);
#27=PLANE('',#284);
#28=PLANE('',#285);
#29=FACE_OUTER_BOUND('',#43,.T.);
#30=FACE_OUTER_BOUND('',#44,.T.);
#31=FACE_OUTER_BOUND('',#46,.T.);
#32=FACE_OUTER_BOUND('',#47,.T.);
#33=FACE_OUTER_BOUND('',#48,.T.);
#34=FACE_OUTER_BOUND('',#49,.T.);
#35=FACE_OUTER_BOUND('',#50,.T.);
#36=FACE_OUTER_BOUND('',#52,.T.);
#37=FACE_OUTER_BOUND('',#53,.T.);
#38=FACE_OUTER_BOUND('',#54,.T.);
#39=FACE_OUTER_BOUND('',#55,.T.);
#40=FACE_OUTER_BOUND('',#56,.T.);
#41=FACE_OUTER_BOUND('',#58,.T.);
#42=FACE_OUTER_BOUND('',#59,.T.);
#43=EDGE_LOOP('',(#163,#164,#165,#166));
#44=EDGE_LOOP('',(#167));
#45=EDGE_LOOP('',(#168,#169,#170,#171));
#46=EDGE_LOOP('',(#172,#173,#174,#175));
#47=EDGE_LOOP('',(#176,#177,#178,#179));
#48=EDGE_LOOP('',(#180,#181,#182,#183));
#49=EDGE_LOOP('',(#184,#185,#186,#187));
#50=EDGE_LOOP('',(#188,#189,#190,#191));
#51=EDGE_LOOP('',(#192));
#52=EDGE_LOOP('',(#193,#194,#195,#196));
#53=EDGE_LOOP('',(#197,#198,#199,#200));
#54=EDGE_LOOP('',(#201,#202,#203,#204));
#55=EDGE_LOOP('',(#205,#206,#207,#208));
#56=EDGE_LOOP('',(#209,#210,#211,#212));
#57=EDGE_LOOP('',(#213));
#58=EDGE_LOOP('',(#214,#215,#216,#217));
#59=EDGE_LOOP('',(#218));
#60=EDGE_LOOP('',(#219,#220,#221,#222));
#61=LINE('',#359,#83);
#62=LINE('',#364,#84);
#63=LINE('',#368,#85);
#64=LINE('',#369,#86);
#65=LINE('',#372,#87);
#66=LINE('',#374,#88);
#67=LINE('',#375,#89);
#68=LINE('',#378,#90);
#69=LINE('',#384,#91);
#70=LINE('',#391,#92);
#71=LINE('',#393,#93);
#72=LINE('',#394,#94);
#73=LINE('',#397,#95);
#74=LINE('',#399,#96);
#75=LINE('',#400,#97);
#76=LINE('',#403,#98);
#77=LINE('',#404,#99);
#78=LINE('',#407,#100);
#79=LINE('',#408,#101);
#80=LINE('',#413,#102);
#81=LINE('',#414,#103);
#82=LINE('',#416,#104);
#83=VECTOR('',#292,43.75);
#84=VECTOR('',#297,10.);
#85=VECTOR('',#300,10.);
#86=VECTOR('',#301,10.);
#87=VECTOR('',#304,10.);
#88=VECTOR('',#305,10.);
#89=VECTOR('',#306,10.);
#90=VECTOR('',#309,10.);
#91=VECTOR('',#316,6.5);
#92=VECTOR('',#323,10.);
#93=VECTOR('',#324,10.);
#94=VECTOR('',#325,10.);
#95=VECTOR('',#328,10.);
#96=VECTOR('',#329,10.);
#97=VECTOR('',#330,10.);
#98=VECTOR('',#333,10.);
#99=VECTOR('',#334,10.);
#100=VECTOR('',#337,10.);
#101=VECTOR('',#338,10.);
#102=VECTOR('',#345,10.);
#103=VECTOR('',#346,10.);
#104=VECTOR('',#349,10.);
#105=CIRCLE('',#265,43.75);
#106=CIRCLE('',#266,43.75);
#107=CIRCLE('',#268,15.625);
#108=CIRCLE('',#271,15.625);
#109=CIRCLE('',#273,6.5);
#110=CIRCLE('',#274,6.5);
#111=CIRCLE('',#276,13.625);
#112=CIRCLE('',#281,13.625);
#113=VERTEX_POINT('',#356);
#114=VERTEX_POINT('',#358);
#115=VERTEX_POINT('',#362);
#116=VERTEX_POINT('',#363);
#117=VERTEX_POINT('',#365);
#118=VERTEX_POINT('',#367);
#119=VERTEX_POINT('',#371);
#120=VERTEX_POINT('',#373);
#121=VERTEX_POINT('',#377);
#122=VERTEX_POINT('',#381);
#123=VERTEX_POINT('',#383);
#124=VERTEX_POINT('',#387);
#125=VERTEX_POINT('',#388);
#126=VERTEX_POINT('',#390);
#127=VERTEX_POINT('',#392);
#128=VERTEX_POINT('',#396);
#129=VERTEX_POINT('',#398);
#130=VERTEX_POINT('',#402);
#131=VERTEX_POINT('',#406);
#132=VERTEX_POINT('',#412);
#133=EDGE_CURVE('',#113,#113,#105,.T.);
#134=EDGE_CURVE('',#113,#114,#61,.T.);
#135=EDGE_CURVE('',#114,#114,#106,.T.);
#136=EDGE_CURVE('',#115,#116,#62,.T.);
#137=EDGE_CURVE('',#117,#115,#107,.T.);
#138=EDGE_CURVE('',#118,#117,#63,.T.);
#139=EDGE_CURVE('',#116,#118,#64,.T.);
#140=EDGE_CURVE('',#117,#119,#65,.T.);
#141=EDGE_CURVE('',#120,#119,#66,.T.);
#142=EDGE_CURVE('',#118,#120,#67,.T.);
#143=EDGE_CURVE('',#115,#121,#68,.T.);
#144=EDGE_CURVE('',#119,#121,#108,.T.);
#145=EDGE_CURVE('',#122,#122,#109,.T.);
#146=EDGE_CURVE('',#122,#123,#69,.T.);
#147=EDGE_CURVE('',#123,#123,#110,.T.);
#148=EDGE_CURVE('',#124,#125,#111,.T.);
#149=EDGE_CURVE('',#126,#124,#70,.T.);
#150=EDGE_CURVE('',#127,#126,#71,.T.);
#151=EDGE_CURVE('',#125,#127,#72,.T.);
#152=EDGE_CURVE('',#128,#126,#73,.T.);
#153=EDGE_CURVE('',#128,#129,#74,.T.);
#154=EDGE_CURVE('',#129,#127,#75,.T.);
#155=EDGE_CURVE('',#130,#124,#76,.T.);
#156=EDGE_CURVE('',#130,#128,#77,.T.);
#157=EDGE_CURVE('',#129,#131,#78,.T.);
#158=EDGE_CURVE('',#131,#125,#79,.T.);
#159=EDGE_CURVE('',#131,#130,#112,.T.);
#160=EDGE_CURVE('',#116,#132,#80,.T.);
#161=EDGE_CURVE('',#121,#132,#81,.T.);
#162=EDGE_CURVE('',#132,#120,#82,.T.);
#163=ORIENTED_EDGE('',*,*,#133,.F.);
#164=ORIENTED_EDGE('',*,*,#134,.T.);
#165=ORIENTED_EDGE('',*,*,#135,.F.);
#166=ORIENTED_EDGE('',*,*,#134,.F.);
#167=ORIENTED_EDGE('',*,*,#133,.T.);
#168=ORIENTED_EDGE('',*,*,#136,.F.);
#169=ORIENTED_EDGE('',*,*,#137,.F.);
#170=ORIENTED_EDGE('',*,*,#138,.F.);
#171=ORIENTED_EDGE('',*,*,#139,.F.);
#172=ORIENTED_EDGE('',*,*,#138,.T.);
#173=ORIENTED_EDGE('',*,*,#140,.T.);
#174=ORIENTED_EDGE('',*,*,#141,.F.);
#175=ORIENTED_EDGE('',*,*,#142,.F.);
#176=ORIENTED_EDGE('',*,*,#137,.T.);
#177=ORIENTED_EDGE('',*,*,#143,.T.);
#178=ORIENTED_EDGE('',*,*,#144,.F.);
#179=ORIENTED_EDGE('',*,*,#140,.F.);
#180=ORIENTED_EDGE('',*,*,#145,.F.);
#181=ORIENTED_EDGE('',*,*,#146,.T.);
#182=ORIENTED_EDGE('',*,*,#147,.F.);
#183=ORIENTED_EDGE('',*,*,#146,.F.);
#184=ORIENTED_EDGE('',*,*,#148,.F.);
#185=ORIENTED_EDGE('',*,*,#149,.F.);
#186=ORIENTED_EDGE('',*,*,#150,.F.);
#187=ORIENTED_EDGE('',*,*,#151,.F.);
#188=ORIENTED_EDGE('',*,*,#150,.T.);
#189=ORIENTED_EDGE('',*,*,#152,.F.);
#190=ORIENTED_EDGE('',*,*,#153,.T.);
#191=ORIENTED_EDGE('',*,*,#154,.T.);
#192=ORIENTED_EDGE('',*,*,#147,.T.);
#193=ORIENTED_EDGE('',*,*,#149,.T.);
#194=ORIENTED_EDGE('',*,*,#155,.F.);
#195=ORIENTED_EDGE('',*,*,#156,.T.);
#196=ORIENTED_EDGE('',*,*,#152,.T.);
#197=ORIENTED_EDGE('',*,*,#151,.T.);
#198=ORIENTED_EDGE('',*,*,#154,.F.);
#199=ORIENTED_EDGE('',*,*,#157,.T.);
#200=ORIENTED_EDGE('',*,*,#158,.T.);
#201=ORIENTED_EDGE('',*,*,#148,.T.);
#202=ORIENTED_EDGE('',*,*,#158,.F.);
#203=ORIENTED_EDGE('',*,*,#159,.T.);
#204=ORIENTED_EDGE('',*,*,#155,.T.);
#205=ORIENTED_EDGE('',*,*,#136,.T.);
#206=ORIENTED_EDGE('',*,*,#160,.T.);
#207=ORIENTED_EDGE('',*,*,#161,.F.);
#208=ORIENTED_EDGE('',*,*,#143,.F.);
#209=ORIENTED_EDGE('',*,*,#139,.T.);
#210=ORIENTED_EDGE('',*,*,#142,.T.);
#211=ORIENTED_EDGE('',*,*,#162,.F.);
#212=ORIENTED_EDGE('',*,*,#160,.F.);
#213=ORIENTED_EDGE('',*,*,#145,.T.);
#214=ORIENTED_EDGE('',*,*,#162,.T.);
#215=ORIENTED_EDGE('',*,*,#141,.T.);
#216=ORIENTED_EDGE('',*,*,#144,.T.);
#217=ORIENTED_EDGE('',*,*,#161,.T.);
#218=ORIENTED_EDGE('',*,*,#135,.T.);
#219=ORIENTED_EDGE('',*,*,#159,.F.);
#220=ORIENTED_EDGE('',*,*,#157,.F.);
#221=ORIENTED_EDGE('',*,*,#153,.F.);
#222=ORIENTED_EDGE('',*,*,#156,.F.);
#223=CYLINDRICAL_SURFACE('',#264,43.75);
#224=CYLINDRICAL_SURFACE('',#270,15.625);
#225=CYLINDRICAL_SURFACE('',#272,6.5);
#226=CYLINDRICAL_SURFACE('',#280,13.625);
#227=ADVANCED_FACE('',(#29),#223,.T.);
#228=ADVANCED_FACE('',(#30,#15),#19,.F.);
#229=ADVANCED_FACE('',(#31),#20,.T.);
#230=ADVANCED_FACE('',(#32),#224,.T.);
#231=ADVANCED_FACE('',(#33),#225,.F.);
#232=ADVANCED_FACE('',(#34),#21,.F.);
#233=ADVANCED_FACE('',(#35,#16),#22,.T.);
#234=ADVANCED_FACE('',(#36),#23,.T.);
#235=ADVANCED_FACE('',(#37),#24,.T.);
#236=ADVANCED_FACE('',(#38),#226,.F.);
#237=ADVANCED_FACE('',(#39),#25,.T.);
#238=ADVANCED_FACE('',(#40,#17),#26,.T.);
#239=ADVANCED_FACE('',(#41),#27,.T.);
#240=ADVANCED_FACE('',(#42,#18),#28,.F.);
#241=CLOSED_SHELL('',(#227,#228,#229,#230,#231,#232,#233,#234,#235,#236,
#237,#238,#239,#240));
#242=DERIVED_UNIT_ELEMENT(#245,1.);
#243=DERIVED_UNIT_ELEMENT(#424,-3.);
#244=DIMENSIONAL_EXPONENTS(0.,1.,0.,0.,0.,0.,0.);
#245=(
CONVERSION_BASED_UNIT('gram',#247)
MASS_UNIT()
NAMED_UNIT(#244)
);
#246=(
MASS_UNIT()
NAMED_UNIT(*)
SI_UNIT(.KILO.,.GRAM.)
);
#247=MASS_MEASURE_WITH_UNIT(MASS_MEASURE(0.001),#246);
#248=DERIVED_UNIT((#242,#243));
#249=MEASURE_REPRESENTATION_ITEM('density measure',
POSITIVE_RATIO_MEASURE(1.),#248);
#250=PROPERTY_DEFINITION_REPRESENTATION(#255,#252);
#251=PROPERTY_DEFINITION_REPRESENTATION(#256,#253);
#252=REPRESENTATION('material name',(#254),#421);
#253=REPRESENTATION('density',(#249),#421);
#254=DESCRIPTIVE_REPRESENTATION_ITEM('Generico','Generico');
#255=PROPERTY_DEFINITION('material property','material name',#431);
#256=PROPERTY_DEFINITION('material property','density of part',#431);
#257=DATE_TIME_ROLE('creation_date');
#258=APPLIED_DATE_AND_TIME_ASSIGNMENT(#259,#257,(#431));
#259=DATE_AND_TIME(#260,#261);
#260=CALENDAR_DATE(2024,4,5);
#261=LOCAL_TIME(0,0,0.,#262);
#262=COORDINATED_UNIVERSAL_TIME_OFFSET(0,0,.BEHIND.);
#263=AXIS2_PLACEMENT_3D('',#354,#286,#287);
#264=AXIS2_PLACEMENT_3D('',#355,#288,#289);
#265=AXIS2_PLACEMENT_3D('',#357,#290,#291);
#266=AXIS2_PLACEMENT_3D('',#360,#293,#294);
#267=AXIS2_PLACEMENT_3D('',#361,#295,#296);
#268=AXIS2_PLACEMENT_3D('',#366,#298,#299);
#269=AXIS2_PLACEMENT_3D('',#370,#302,#303);
#270=AXIS2_PLACEMENT_3D('',#376,#307,#308);
#271=AXIS2_PLACEMENT_3D('',#379,#310,#311);
#272=AXIS2_PLACEMENT_3D('',#380,#312,#313);
#273=AXIS2_PLACEMENT_3D('',#382,#314,#315);
#274=AXIS2_PLACEMENT_3D('',#385,#317,#318);
#275=AXIS2_PLACEMENT_3D('',#386,#319,#320);
#276=AXIS2_PLACEMENT_3D('',#389,#321,#322);
#277=AXIS2_PLACEMENT_3D('',#395,#326,#327);
#278=AXIS2_PLACEMENT_3D('',#401,#331,#332);
#279=AXIS2_PLACEMENT_3D('',#405,#335,#336);
#280=AXIS2_PLACEMENT_3D('',#409,#339,#340);
#281=AXIS2_PLACEMENT_3D('',#410,#341,#342);
#282=AXIS2_PLACEMENT_3D('',#411,#343,#344);
#283=AXIS2_PLACEMENT_3D('',#415,#347,#348);
#284=AXIS2_PLACEMENT_3D('',#417,#350,#351);
#285=AXIS2_PLACEMENT_3D('',#418,#352,#353);
#286=DIRECTION('axis',(0.,0.,1.));
#287=DIRECTION('refdir',(1.,0.,0.));
#288=DIRECTION('center_axis',(0.,0.,1.));
#289=DIRECTION('ref_axis',(-1.,0.,0.));
#290=DIRECTION('center_axis',(0.,0.,1.));
#291=DIRECTION('ref_axis',(-1.,0.,0.));
#292=DIRECTION('',(0.,0.,-1.));
#293=DIRECTION('center_axis',(0.,0.,-1.));
#294=DIRECTION('ref_axis',(-1.,0.,0.));
#295=DIRECTION('center_axis',(0.,0.,-1.));
#296=DIRECTION('ref_axis',(-1.,0.,0.));
#297=DIRECTION('',(-1.,0.,0.));
#298=DIRECTION('center_axis',(0.,0.,1.));
#299=DIRECTION('ref_axis',(0.,-1.,0.));
#300=DIRECTION('',(1.,0.,0.));
#301=DIRECTION('',(0.,-1.,0.));
#302=DIRECTION('center_axis',(0.,-1.,0.));
#303=DIRECTION('ref_axis',(1.,0.,0.));
#304=DIRECTION('',(0.,0.,1.));
#305=DIRECTION('',(1.,0.,0.));
#306=DIRECTION('',(0.,0.,1.));
#307=DIRECTION('center_axis',(0.,0.,1.));
#308=DIRECTION('ref_axis',(0.,-1.,0.));
#309=DIRECTION('',(0.,0.,1.));
#310=DIRECTION('center_axis',(0.,0.,1.));
#311=DIRECTION('ref_axis',(0.,-1.,0.));
#312=DIRECTION('center_axis',(-1.,0.,0.));
#313=DIRECTION('ref_axis',(0.,0.,1.));
#314=DIRECTION('center_axis',(1.,0.,0.));
#315=DIRECTION('ref_axis',(0.,0.,1.));
#316=DIRECTION('',(1.,0.,0.));
#317=DIRECTION('center_axis',(-1.,0.,0.));
#318=DIRECTION('ref_axis',(0.,0.,1.));
#319=DIRECTION('center_axis',(0.,0.,1.));
#320=DIRECTION('ref_axis',(1.,0.,0.));
#321=DIRECTION('center_axis',(0.,0.,1.));
#322=DIRECTION('ref_axis',(0.,1.,0.));
#323=DIRECTION('',(1.,4.49438855929908E-13,0.));
#324=DIRECTION('',(0.,-1.,0.));
#325=DIRECTION('',(-1.,4.49438855929908E-13,0.));
#326=DIRECTION('center_axis',(1.,0.,0.));
#327=DIRECTION('ref_axis',(0.,1.,0.));
#328=DIRECTION('',(0.,0.,1.));
#329=DIRECTION('',(0.,1.,0.));
#330=DIRECTION('',(0.,0.,1.));
#331=DIRECTION('center_axis',(-4.49438855929908E-13,1.,0.));
#332=DIRECTION('ref_axis',(-1.,-4.49438855929908E-13,0.));
#333=DIRECTION('',(0.,0.,1.));
#334=DIRECTION('',(-1.,-4.49438855929908E-13,0.));
#335=DIRECTION('center_axis',(-4.49438855929908E-13,-1.,0.));
#336=DIRECTION('ref_axis',(1.,-4.49438855929908E-13,0.));
#337=DIRECTION('',(1.,-4.49438855929908E-13,0.));
#338=DIRECTION('',(0.,0.,1.));
#339=DIRECTION('center_axis',(0.,0.,1.));
#340=DIRECTION('ref_axis',(0.,1.,0.));
#341=DIRECTION('center_axis',(0.,0.,-1.));
#342=DIRECTION('ref_axis',(0.,1.,0.));
#343=DIRECTION('center_axis',(0.,1.,0.));
#344=DIRECTION('ref_axis',(-1.,0.,0.));
#345=DIRECTION('',(0.,0.,1.));
#346=DIRECTION('',(-1.,0.,0.));
#347=DIRECTION('center_axis',(-1.,0.,0.));
#348=DIRECTION('ref_axis',(0.,-1.,0.));
#349=DIRECTION('',(0.,-1.,0.));
#350=DIRECTION('center_axis',(0.,0.,1.));
#351=DIRECTION('ref_axis',(1.,0.,0.));
#352=DIRECTION('center_axis',(0.,0.,1.));
#353=DIRECTION('ref_axis',(1.,0.,0.));
#354=CARTESIAN_POINT('',(0.,0.,0.));
#355=CARTESIAN_POINT('Origin',(0.,0.,0.));
#356=CARTESIAN_POINT('',(43.75,5.35782974626967E-15,1.));
#357=CARTESIAN_POINT('Origin',(0.,0.,1.));
#358=CARTESIAN_POINT('',(43.75,5.35782974626967E-15,0.));
#359=CARTESIAN_POINT('',(43.75,5.35782974626967E-15,0.));
#360=CARTESIAN_POINT('Origin',(0.,0.,0.));
#361=CARTESIAN_POINT('Origin',(0.,0.,1.));
#362=CARTESIAN_POINT('',(9.375,15.625,1.));
#363=CARTESIAN_POINT('',(-25.,15.625,1.));
#364=CARTESIAN_POINT('',(4.6875,15.625,1.));
#365=CARTESIAN_POINT('',(9.375,-15.625,1.));
#366=CARTESIAN_POINT('Origin',(9.375,1.11022302462516E-15,1.));
#367=CARTESIAN_POINT('',(-25.,-15.625,1.));
#368=CARTESIAN_POINT('',(-12.5,-15.625,1.));
#369=CARTESIAN_POINT('',(-25.,7.8125,1.));
#370=CARTESIAN_POINT('Origin',(-25.,-15.625,0.));
#371=CARTESIAN_POINT('',(9.375,-15.625,25.));
#372=CARTESIAN_POINT('',(9.375,-15.625,0.));
#373=CARTESIAN_POINT('',(-25.,-15.625,25.));
#374=CARTESIAN_POINT('',(-25.,-15.625,25.));
#375=CARTESIAN_POINT('',(-25.,-15.625,0.));
#376=CARTESIAN_POINT('Origin',(9.375,1.11022302462516E-15,0.));
#377=CARTESIAN_POINT('',(9.375,15.625,25.));
#378=CARTESIAN_POINT('',(9.375,15.625,0.));
#379=CARTESIAN_POINT('Origin',(9.375,1.11022302462516E-15,25.));
#380=CARTESIAN_POINT('Origin',(39.0434422872475,0.,12.5));
#381=CARTESIAN_POINT('',(-25.,-7.9602041944578E-16,6.));
#382=CARTESIAN_POINT('Origin',(-25.,0.,12.5));
#383=CARTESIAN_POINT('',(-23.0000000000146,-7.9602041944578E-16,6.));
#384=CARTESIAN_POINT('',(39.0434422872475,-7.9602041944578E-16,6.));
#385=CARTESIAN_POINT('Origin',(-23.0000000000146,0.,12.5));
#386=CARTESIAN_POINT('Origin',(-7.27640170339328E-12,0.,23.));
#387=CARTESIAN_POINT('',(9.375,-13.625,23.));
#388=CARTESIAN_POINT('',(9.375,13.625,23.));
#389=CARTESIAN_POINT('Origin',(9.375,1.11022302462516E-15,23.));
#390=CARTESIAN_POINT('',(-23.0000000000146,-13.6250000000146,23.));
#391=CARTESIAN_POINT('',(4.68749999999942,-13.6250000000021,23.));
#392=CARTESIAN_POINT('',(-23.0000000000146,13.6250000000146,23.));
#393=CARTESIAN_POINT('',(-23.0000000000146,-6.81250000000728,23.));
#394=CARTESIAN_POINT('',(-11.5000000000079,13.6250000000094,23.));
#395=CARTESIAN_POINT('Origin',(-23.0000000000146,-13.6250000000146,0.));
#396=CARTESIAN_POINT('',(-23.0000000000146,-13.6250000000146,0.));
#397=CARTESIAN_POINT('',(-23.0000000000146,-13.6250000000146,0.));
#398=CARTESIAN_POINT('',(-23.0000000000146,13.6250000000146,0.));
#399=CARTESIAN_POINT('',(-23.0000000000146,-13.6250000000146,0.));
#400=CARTESIAN_POINT('',(-23.0000000000146,13.6250000000146,0.));
#401=CARTESIAN_POINT('Origin',(9.375,-13.625,0.));
#402=CARTESIAN_POINT('',(9.375,-13.625,0.));
#403=CARTESIAN_POINT('',(9.375,-13.625,0.));
#404=CARTESIAN_POINT('',(9.375,-13.625,0.));
#405=CARTESIAN_POINT('Origin',(-23.0000000000146,13.6250000000146,0.));
#406=CARTESIAN_POINT('',(9.375,13.625,0.));
#407=CARTESIAN_POINT('',(-23.0000000000146,13.6250000000146,0.));
#408=CARTESIAN_POINT('',(9.375,13.625,0.));
#409=CARTESIAN_POINT('Origin',(9.375,1.11022302462516E-15,0.));
#410=CARTESIAN_POINT('Origin',(9.375,1.11022302462516E-15,0.));
#411=CARTESIAN_POINT('Origin',(9.375,15.625,0.));
#412=CARTESIAN_POINT('',(-25.,15.625,25.));
#413=CARTESIAN_POINT('',(-25.,15.625,0.));
#414=CARTESIAN_POINT('',(9.375,15.625,25.));
#415=CARTESIAN_POINT('Origin',(-25.,15.625,0.));
#416=CARTESIAN_POINT('',(-25.,15.625,25.));
#417=CARTESIAN_POINT('Origin',(0.,0.,25.));
#418=CARTESIAN_POINT('Origin',(0.,0.,0.));
#419=UNCERTAINTY_MEASURE_WITH_UNIT(LENGTH_MEASURE(0.01),#423,
'DISTANCE_ACCURACY_VALUE',
'Maximum model space distance between geometric entities at asserted c
onnectivities');
#420=UNCERTAINTY_MEASURE_WITH_UNIT(LENGTH_MEASURE(0.01),#423,
'DISTANCE_ACCURACY_VALUE',
'Maximum model space distance between geometric entities at asserted c
onnectivities');
#421=(
GEOMETRIC_REPRESENTATION_CONTEXT(3)
GLOBAL_UNCERTAINTY_ASSIGNED_CONTEXT((#419))
GLOBAL_UNIT_ASSIGNED_CONTEXT((#423,#425,#426))
REPRESENTATION_CONTEXT('','3D')
);
#422=(
GEOMETRIC_REPRESENTATION_CONTEXT(3)
GLOBAL_UNCERTAINTY_ASSIGNED_CONTEXT((#420))
GLOBAL_UNIT_ASSIGNED_CONTEXT((#423,#425,#426))
REPRESENTATION_CONTEXT('','3D')
);
#423=(
LENGTH_UNIT()
NAMED_UNIT(*)
SI_UNIT(.MILLI.,.METRE.)
);
#424=(
LENGTH_UNIT()
NAMED_UNIT(*)
SI_UNIT(.CENTI.,.METRE.)
);
#425=(
NAMED_UNIT(*)
PLANE_ANGLE_UNIT()
SI_UNIT($,.RADIAN.)
);
#426=(
NAMED_UNIT(*)
SI_UNIT($,.STERADIAN.)
SOLID_ANGLE_UNIT()
);
#427=SHAPE_DEFINITION_REPRESENTATION(#428,#429);
#428=PRODUCT_DEFINITION_SHAPE('',$,#431);
#429=SHAPE_REPRESENTATION('',(#263),#421);
#430=PRODUCT_DEFINITION_CONTEXT('part definition',#435,'design');
#431=PRODUCT_DEFINITION('F-SICT-03','F-SICT-03',#432,#430);
#432=PRODUCT_DEFINITION_FORMATION('',$,#437);
#433=PRODUCT_RELATED_PRODUCT_CATEGORY('F-SICT-03','F-SICT-03',(#437));
#434=APPLICATION_PROTOCOL_DEFINITION('international standard',
'automotive_design',2009,#435);
#435=APPLICATION_CONTEXT(
'Core Data for Automotive Mechanical Design Process');
#436=PRODUCT_CONTEXT('part definition',#435,'mechanical');
#437=PRODUCT('F-SICT-03','F-SICT-03',$,(#436));
#438=PRESENTATION_STYLE_ASSIGNMENT((#439));
#439=SURFACE_STYLE_USAGE(.BOTH.,#442);
#440=SURFACE_STYLE_RENDERING_WITH_PROPERTIES($,#446,(#441));
#441=SURFACE_STYLE_TRANSPARENT(0.);
#442=SURFACE_SIDE_STYLE('',(#443,#440));
#443=SURFACE_STYLE_FILL_AREA(#444);
#444=FILL_AREA_STYLE('',(#445));
#445=FILL_AREA_STYLE_COLOUR('',#446);
#446=COLOUR_RGB('',0.749019607843137,0.749019607843137,0.749019607843137);
ENDSEC;
END-ISO-10303-21;
