ISO-10303-21;
HEADER;
/* Generated by software containing ST-Developer
 * from STEP Tools, Inc. (www.steptools.com) 
 */

FILE_DESCRIPTION(
/* description */ (''),
/* implementation_level */ '2;1');

FILE_NAME(
/* name */ 'F-SICT-06.stp',
/* time_stamp */ '2024-05-04T18:00:31+02:00',
/* author */ ('Utente'),
/* organization */ (''),
/* preprocessor_version */ 'ST-DEVELOPER v20',
/* originating_system */ 'Autodesk Inventor 2024',
/* authorisation */ '');

FILE_SCHEMA (('AUTOMOTIVE_DESIGN { 1 0 10303 214 3 1 1 }'));
ENDSEC;

DATA;
#10=MECHANICAL_DESIGN_GEOMETRIC_PRESENTATION_REPRESENTATION('',(#13),#342);
#11=SHAPE_REPRESENTATION_RELATIONSHIP('SRR','None',#349,#12);
#12=ADVANCED_BREP_SHAPE_REPRESENTATION('',(#14),#341);
#13=STYLED_ITEM('',(#358),#14);
#14=MANIFOLD_SOLID_BREP('Solido1',#149);
#15=FACE_BOUND('',#34,.T.);
#16=FACE_BOUND('',#36,.T.);
#17=FACE_BOUND('',#37,.T.);
#18=FACE_BOUND('',#39,.T.);
#19=PLANE('',#176);
#20=PLANE('',#180);
#21=PLANE('',#184);
#22=PLANE('',#185);
#23=FACE_OUTER_BOUND('',#31,.T.);
#24=FACE_OUTER_BOUND('',#32,.T.);
#25=FACE_OUTER_BOUND('',#33,.T.);
#26=FACE_OUTER_BOUND('',#35,.T.);
#27=FACE_OUTER_BOUND('',#38,.T.);
#28=FACE_OUTER_BOUND('',#40,.T.);
#29=FACE_OUTER_BOUND('',#41,.T.);
#30=FACE_OUTER_BOUND('',#42,.T.);
#31=EDGE_LOOP('',(#101,#102,#103,#104));
#32=EDGE_LOOP('',(#105,#106,#107,#108));
#33=EDGE_LOOP('',(#109,#110,#111,#112));
#34=EDGE_LOOP('',(#113));
#35=EDGE_LOOP('',(#114,#115,#116,#117));
#36=EDGE_LOOP('',(#118));
#37=EDGE_LOOP('',(#119));
#38=EDGE_LOOP('',(#120,#121,#122,#123));
#39=EDGE_LOOP('',(#124));
#40=EDGE_LOOP('',(#125,#126,#127,#128));
#41=EDGE_LOOP('',(#129,#130,#131,#132));
#42=EDGE_LOOP('',(#133,#134,#135,#136));
#43=B_SPLINE_CURVE_WITH_KNOTS('',3,(#232,#233,#234,#235,#236,#237,#238,
#239,#240,#241,#242,#243,#244,#245,#246,#247,#248,#249,#250,#251,#252,#253,
#254,#255,#256,#257,#258,#259,#260,#261,#262,#263,#264,#265,#266,#267,#268,
#269),.UNSPECIFIED.,.T.,.F.,(4,2,2,2,2,2,2,2,2,2,2,2,2,2,2,2,2,2,4),(0.,
0.0921252855794907,0.184250571158981,0.309629216606847,0.435007862054713,
0.585683054760532,0.736358247466352,0.834412097112702,0.883439021935877,
0.932465946759052,0.989758173007231,1.04705039925541,1.16163485175177,1.29687643482638,
1.43211801790099,1.55075815828708,1.66939829867318,1.76826579854649,1.86713329841981),
 .UNSPECIFIED.);
#44=B_SPLINE_CURVE_WITH_KNOTS('',3,(#275,#276,#277,#278,#279,#280,#281,
#282,#283,#284,#285,#286,#287,#288,#289,#290,#291,#292,#293,#294,#295,#296,
#297,#298,#299,#300,#301,#302,#303,#304,#305,#306,#307,#308,#309,#310,#311,
#312),.UNSPECIFIED.,.T.,.F.,(4,2,2,2,2,2,2,2,2,2,2,2,2,2,2,2,2,2,4),(0.,
0.0489923811745934,0.0979847623491868,0.195969524698374,0.346200410415774,
0.496431296133174,0.621595604926115,0.746759913719057,0.838897069456189,
0.931034225193322,1.02986781529647,1.12870140539962,1.24717304159582,1.36564467779203,
1.50057061236171,1.63549654693139,1.74986062185504,1.80704265931686,1.86422469677868),
 .UNSPECIFIED.);
#45=LINE('',#231,#55);
#46=LINE('',#274,#56);
#47=LINE('',#316,#57);
#48=LINE('',#318,#58);
#49=LINE('',#320,#59);
#50=LINE('',#321,#60);
#51=LINE('',#326,#61);
#52=LINE('',#330,#62);
#53=LINE('',#332,#63);
#54=LINE('',#333,#64);
#55=VECTOR('',#192,2.5);
#56=VECTOR('',#197,2.5);
#57=VECTOR('',#200,10.);
#58=VECTOR('',#201,10.);
#59=VECTOR('',#202,10.);
#60=VECTOR('',#203,10.);
#61=VECTOR('',#208,10.);
#62=VECTOR('',#213,10.);
#63=VECTOR('',#214,10.);
#64=VECTOR('',#215,10.);
#65=CIRCLE('',#173,2.5);
#66=CIRCLE('',#175,2.5);
#67=CIRCLE('',#178,16.);
#68=CIRCLE('',#179,16.);
#69=CIRCLE('',#182,8.);
#70=CIRCLE('',#183,8.);
#71=VERTEX_POINT('',#228);
#72=VERTEX_POINT('',#230);
#73=VERTEX_POINT('',#271);
#74=VERTEX_POINT('',#273);
#75=VERTEX_POINT('',#314);
#76=VERTEX_POINT('',#315);
#77=VERTEX_POINT('',#317);
#78=VERTEX_POINT('',#319);
#79=VERTEX_POINT('',#323);
#80=VERTEX_POINT('',#325);
#81=VERTEX_POINT('',#329);
#82=VERTEX_POINT('',#331);
#83=EDGE_CURVE('',#71,#71,#65,.T.);
#84=EDGE_CURVE('',#71,#72,#45,.T.);
#85=EDGE_CURVE('',#72,#72,#43,.T.);
#86=EDGE_CURVE('',#73,#73,#66,.T.);
#87=EDGE_CURVE('',#73,#74,#46,.T.);
#88=EDGE_CURVE('',#74,#74,#44,.T.);
#89=EDGE_CURVE('',#75,#76,#47,.T.);
#90=EDGE_CURVE('',#77,#76,#48,.T.);
#91=EDGE_CURVE('',#78,#77,#49,.T.);
#92=EDGE_CURVE('',#78,#75,#50,.T.);
#93=EDGE_CURVE('',#76,#79,#67,.T.);
#94=EDGE_CURVE('',#80,#79,#51,.T.);
#95=EDGE_CURVE('',#77,#80,#68,.T.);
#96=EDGE_CURVE('',#79,#81,#52,.T.);
#97=EDGE_CURVE('',#82,#81,#53,.T.);
#98=EDGE_CURVE('',#80,#82,#54,.T.);
#99=EDGE_CURVE('',#81,#75,#69,.T.);
#100=EDGE_CURVE('',#82,#78,#70,.T.);
#101=ORIENTED_EDGE('',*,*,#83,.F.);
#102=ORIENTED_EDGE('',*,*,#84,.T.);
#103=ORIENTED_EDGE('',*,*,#85,.F.);
#104=ORIENTED_EDGE('',*,*,#84,.F.);
#105=ORIENTED_EDGE('',*,*,#86,.F.);
#106=ORIENTED_EDGE('',*,*,#87,.T.);
#107=ORIENTED_EDGE('',*,*,#88,.F.);
#108=ORIENTED_EDGE('',*,*,#87,.F.);
#109=ORIENTED_EDGE('',*,*,#89,.T.);
#110=ORIENTED_EDGE('',*,*,#90,.F.);
#111=ORIENTED_EDGE('',*,*,#91,.F.);
#112=ORIENTED_EDGE('',*,*,#92,.T.);
#113=ORIENTED_EDGE('',*,*,#83,.T.);
#114=ORIENTED_EDGE('',*,*,#93,.T.);
#115=ORIENTED_EDGE('',*,*,#94,.F.);
#116=ORIENTED_EDGE('',*,*,#95,.F.);
#117=ORIENTED_EDGE('',*,*,#90,.T.);
#118=ORIENTED_EDGE('',*,*,#85,.T.);
#119=ORIENTED_EDGE('',*,*,#88,.T.);
#120=ORIENTED_EDGE('',*,*,#96,.T.);
#121=ORIENTED_EDGE('',*,*,#97,.F.);
#122=ORIENTED_EDGE('',*,*,#98,.F.);
#123=ORIENTED_EDGE('',*,*,#94,.T.);
#124=ORIENTED_EDGE('',*,*,#86,.T.);
#125=ORIENTED_EDGE('',*,*,#99,.T.);
#126=ORIENTED_EDGE('',*,*,#92,.F.);
#127=ORIENTED_EDGE('',*,*,#100,.F.);
#128=ORIENTED_EDGE('',*,*,#97,.T.);
#129=ORIENTED_EDGE('',*,*,#95,.T.);
#130=ORIENTED_EDGE('',*,*,#98,.T.);
#131=ORIENTED_EDGE('',*,*,#100,.T.);
#132=ORIENTED_EDGE('',*,*,#91,.T.);
#133=ORIENTED_EDGE('',*,*,#96,.F.);
#134=ORIENTED_EDGE('',*,*,#93,.F.);
#135=ORIENTED_EDGE('',*,*,#89,.F.);
#136=ORIENTED_EDGE('',*,*,#99,.F.);
#137=CYLINDRICAL_SURFACE('',#172,2.5);
#138=CYLINDRICAL_SURFACE('',#174,2.5);
#139=CYLINDRICAL_SURFACE('',#177,16.);
#140=CYLINDRICAL_SURFACE('',#181,8.);
#141=ADVANCED_FACE('',(#23),#137,.F.);
#142=ADVANCED_FACE('',(#24),#138,.F.);
#143=ADVANCED_FACE('',(#25,#15),#19,.T.);
#144=ADVANCED_FACE('',(#26,#16,#17),#139,.T.);
#145=ADVANCED_FACE('',(#27,#18),#20,.T.);
#146=ADVANCED_FACE('',(#28),#140,.F.);
#147=ADVANCED_FACE('',(#29),#21,.T.);
#148=ADVANCED_FACE('',(#30),#22,.T.);
#149=CLOSED_SHELL('',(#141,#142,#143,#144,#145,#146,#147,#148));
#150=DERIVED_UNIT_ELEMENT(#153,1.);
#151=DERIVED_UNIT_ELEMENT(#344,-3.);
#152=DIMENSIONAL_EXPONENTS(0.,1.,0.,0.,0.,0.,0.);
#153=(
CONVERSION_BASED_UNIT('gram',#155)
MASS_UNIT()
NAMED_UNIT(#152)
);
#154=(
MASS_UNIT()
NAMED_UNIT(*)
SI_UNIT(.KILO.,.GRAM.)
);
#155=MASS_MEASURE_WITH_UNIT(MASS_MEASURE(0.001),#154);
#156=DERIVED_UNIT((#150,#151));
#157=MEASURE_REPRESENTATION_ITEM('density measure',
POSITIVE_RATIO_MEASURE(1.),#156);
#158=PROPERTY_DEFINITION_REPRESENTATION(#163,#160);
#159=PROPERTY_DEFINITION_REPRESENTATION(#164,#161);
#160=REPRESENTATION('material name',(#162),#341);
#161=REPRESENTATION('density',(#157),#341);
#162=DESCRIPTIVE_REPRESENTATION_ITEM('Generico','Generico');
#163=PROPERTY_DEFINITION('material property','material name',#351);
#164=PROPERTY_DEFINITION('material property','density of part',#351);
#165=DATE_TIME_ROLE('creation_date');
#166=APPLIED_DATE_AND_TIME_ASSIGNMENT(#167,#165,(#351));
#167=DATE_AND_TIME(#168,#169);
#168=CALENDAR_DATE(2024,4,5);
#169=LOCAL_TIME(0,0,0.,#170);
#170=COORDINATED_UNIVERSAL_TIME_OFFSET(0,0,.BEHIND.);
#171=AXIS2_PLACEMENT_3D('',#226,#186,#187);
#172=AXIS2_PLACEMENT_3D('',#227,#188,#189);
#173=AXIS2_PLACEMENT_3D('',#229,#190,#191);
#174=AXIS2_PLACEMENT_3D('',#270,#193,#194);
#175=AXIS2_PLACEMENT_3D('',#272,#195,#196);
#176=AXIS2_PLACEMENT_3D('',#313,#198,#199);
#177=AXIS2_PLACEMENT_3D('',#322,#204,#205);
#178=AXIS2_PLACEMENT_3D('',#324,#206,#207);
#179=AXIS2_PLACEMENT_3D('',#327,#209,#210);
#180=AXIS2_PLACEMENT_3D('',#328,#211,#212);
#181=AXIS2_PLACEMENT_3D('',#334,#216,#217);
#182=AXIS2_PLACEMENT_3D('',#335,#218,#219);
#183=AXIS2_PLACEMENT_3D('',#336,#220,#221);
#184=AXIS2_PLACEMENT_3D('',#337,#222,#223);
#185=AXIS2_PLACEMENT_3D('',#338,#224,#225);
#186=DIRECTION('axis',(0.,0.,1.));
#187=DIRECTION('refdir',(1.,0.,0.));
#188=DIRECTION('center_axis',(0.,-1.,0.));
#189=DIRECTION('ref_axis',(1.,0.,0.));
#190=DIRECTION('center_axis',(0.,1.,0.));
#191=DIRECTION('ref_axis',(1.,0.,0.));
#192=DIRECTION('',(0.,1.,0.));
#193=DIRECTION('center_axis',(0.,-1.,0.));
#194=DIRECTION('ref_axis',(1.,0.,0.));
#195=DIRECTION('center_axis',(-4.06546299385458E-16,1.,0.));
#196=DIRECTION('ref_axis',(1.,0.,0.));
#197=DIRECTION('',(0.,1.,0.));
#198=DIRECTION('center_axis',(0.,-1.,0.));
#199=DIRECTION('ref_axis',(-1.,0.,0.));
#200=DIRECTION('',(1.,0.,0.));
#201=DIRECTION('',(0.,0.,-1.));
#202=DIRECTION('',(1.,0.,0.));
#203=DIRECTION('',(0.,0.,-1.));
#204=DIRECTION('center_axis',(0.,0.,-1.));
#205=DIRECTION('ref_axis',(1.,0.,0.));
#206=DIRECTION('center_axis',(0.,0.,1.));
#207=DIRECTION('ref_axis',(1.,0.,0.));
#208=DIRECTION('',(0.,0.,-1.));
#209=DIRECTION('center_axis',(0.,0.,1.));
#210=DIRECTION('ref_axis',(1.,0.,0.));
#211=DIRECTION('center_axis',(4.06546299385458E-16,-1.,0.));
#212=DIRECTION('ref_axis',(-1.,-4.06546299385458E-16,0.));
#213=DIRECTION('',(1.,4.06546299385458E-16,0.));
#214=DIRECTION('',(0.,0.,-1.));
#215=DIRECTION('',(1.,4.06546299385458E-16,0.));
#216=DIRECTION('center_axis',(0.,0.,-1.));
#217=DIRECTION('ref_axis',(-1.,0.,0.));
#218=DIRECTION('center_axis',(0.,0.,-1.));
#219=DIRECTION('ref_axis',(-1.,0.,0.));
#220=DIRECTION('center_axis',(0.,0.,-1.));
#221=DIRECTION('ref_axis',(-1.,0.,0.));
#222=DIRECTION('center_axis',(0.,0.,1.));
#223=DIRECTION('ref_axis',(1.,0.,0.));
#224=DIRECTION('center_axis',(0.,0.,-1.));
#225=DIRECTION('ref_axis',(-1.,0.,0.));
#226=CARTESIAN_POINT('',(0.,0.,0.));
#227=CARTESIAN_POINT('Origin',(11.2320964255116,56.2105057922046,-9.));
#228=CARTESIAN_POINT('',(8.73209642551161,18.25,-9.));
#229=CARTESIAN_POINT('Origin',(11.2320964255116,18.25,-9.));
#230=CARTESIAN_POINT('',(8.73209642551161,30.6571060268638,-9.));
#231=CARTESIAN_POINT('',(8.73209642551161,56.2105057922046,-9.));
#232=CARTESIAN_POINT('Ctrl Pts',(8.73209642551161,30.6571060268638,-9.));
#233=CARTESIAN_POINT('Ctrl Pts',(8.73209642551161,30.6571060268638,-9.30708428526497));
#234=CARTESIAN_POINT('Ctrl Pts',(8.79251135076779,30.618295186325,-9.63047611604214));
#235=CARTESIAN_POINT('Ctrl Pts',(9.02493139694048,30.4625011511092,-10.2155232006823));
#236=CARTESIAN_POINT('Ctrl Pts',(9.19641758108814,30.3449785398356,-10.4772407271121));
#237=CARTESIAN_POINT('Ctrl Pts',(9.63486375538226,30.0275878425689,-10.9596016891236));
#238=CARTESIAN_POINT('Ctrl Pts',(9.9487536021061,29.7880260082401,-11.1741423020973));
#239=CARTESIAN_POINT('Ctrl Pts',(10.5988736149537,29.243484661687,-11.4439499631907));
#240=CARTESIAN_POINT('Ctrl Pts',(10.9344596395743,28.9381246095158,-11.5));
#241=CARTESIAN_POINT('Ctrl Pts',(11.5897847696251,28.2921530826877,-11.5));
#242=CARTESIAN_POINT('Ctrl Pts',(11.9568651420843,27.894312130828,-11.420437221875));
#243=CARTESIAN_POINT('Ctrl Pts',(12.6199442294729,27.099112207582,-11.1113230803881));
#244=CARTESIAN_POINT('Ctrl Pts',(12.916639328688,26.7015807177192,-10.8837127966517));
#245=CARTESIAN_POINT('Ctrl Pts',(13.3064172990362,26.1388738344717,-10.4159141068838));
#246=CARTESIAN_POINT('Ctrl Pts',(13.4542867248903,25.911541049497,-10.1820218454106));
#247=CARTESIAN_POINT('Ctrl Pts',(13.6137550593737,25.6568843376367,-9.7739692996741));
#248=CARTESIAN_POINT('Ctrl Pts',(13.6568336725824,25.5863116409889,-9.62838925377555));
#249=CARTESIAN_POINT('Ctrl Pts',(13.7159877634182,25.488628716209,-9.32311772122145));
#250=CARTESIAN_POINT('Ctrl Pts',(13.7320964255116,25.4615484386595,-9.16342308274392));
#251=CARTESIAN_POINT('Ctrl Pts',(13.7320964255116,25.4615484386595,-8.80902591250607));
#252=CARTESIAN_POINT('Ctrl Pts',(13.7103848989409,25.4980750655086,-8.62721541380326));
#253=CARTESIAN_POINT('Ctrl Pts',(13.6338773872895,25.6239380544537,-8.28424321735816));
#254=CARTESIAN_POINT('Ctrl Pts',(13.5789806616189,25.7132755816535,-8.12310442737363));
#255=CARTESIAN_POINT('Ctrl Pts',(13.377340843152,26.0312157229762,-7.67517088734529));
#256=CARTESIAN_POINT('Ctrl Pts',(13.1922273002251,26.3094712532897,-7.42459696878074));
#257=CARTESIAN_POINT('Ctrl Pts',(12.7728203483222,26.8940000627146,-7.0051900168778));
#258=CARTESIAN_POINT('Ctrl Pts',(12.495387935504,27.2543373808092,-6.81756635526016));
#259=CARTESIAN_POINT('Ctrl Pts',(11.8857595791317,27.9714833718068,-6.56450285079607));
#260=CARTESIAN_POINT('Ctrl Pts',(11.5531468720818,28.3282680392651,-6.5));
#261=CARTESIAN_POINT('Ctrl Pts',(10.9504561992871,28.9223563723038,-6.5));
#262=CARTESIAN_POINT('Ctrl Pts',(10.6331427103081,29.2124625515817,-6.55016249341609));
#263=CARTESIAN_POINT('Ctrl Pts',(10.0139122817807,29.7354232497236,-6.79172522781385));
#264=CARTESIAN_POINT('Ctrl Pts',(9.712554766761,29.96853208356,-6.98400775281787));
#265=CARTESIAN_POINT('Ctrl Pts',(9.25747356218839,30.3023945148974,-7.43908895739049));
#266=CARTESIAN_POINT('Ctrl Pts',(9.06453124675891,30.4355751911896,-7.71015127722331));
#267=CARTESIAN_POINT('Ctrl Pts',(8.8015563094913,30.6125493269837,-8.32581519501085));
#268=CARTESIAN_POINT('Ctrl Pts',(8.73209642551161,30.6571060268638,-8.67044166708895));
#269=CARTESIAN_POINT('Ctrl Pts',(8.73209642551161,30.6571060268638,-9.));
#270=CARTESIAN_POINT('Origin',(-11.2089557798461,56.2105057922046,-9.));
#271=CARTESIAN_POINT('',(-13.7089557798461,18.25,-9.));
#272=CARTESIAN_POINT('Origin',(-11.2089557798461,18.25,-9.));
#273=CARTESIAN_POINT('',(-13.7089557798461,25.5001231158223,-9.));
#274=CARTESIAN_POINT('',(-13.7089557798461,56.2105057922046,-9.));
#275=CARTESIAN_POINT('Ctrl Pts',(-13.7089557798461,25.5001231158223,-9.));
#276=CARTESIAN_POINT('Ctrl Pts',(-13.7089557798461,25.5001231158223,-9.16330793724865));
#277=CARTESIAN_POINT('Ctrl Pts',(-13.69286458462,25.5270017083159,-9.32301553602684));
#278=CARTESIAN_POINT('Ctrl Pts',(-13.6336883031943,25.6241096227071,-9.62842569972328));
#279=CARTESIAN_POINT('Ctrl Pts',(-13.5905708463775,25.6943090312988,-9.77413150211635));
#280=CARTESIAN_POINT('Ctrl Pts',(-13.4308880042431,25.9477658923528,-10.1825806089985));
#281=CARTESIAN_POINT('Ctrl Pts',(-13.2827353777142,26.1742105629926,-10.4167707564081));
#282=CARTESIAN_POINT('Ctrl Pts',(-12.8926170003552,26.734253979984,-10.8844520342855));
#283=CARTESIAN_POINT('Ctrl Pts',(-12.5959527233723,27.1296900626276,-11.1118471306332));
#284=CARTESIAN_POINT('Ctrl Pts',(-11.9331424076311,27.9208206866016,-11.420580908313));
#285=CARTESIAN_POINT('Ctrl Pts',(-11.5663018557816,28.3166811462296,-11.5));
#286=CARTESIAN_POINT('Ctrl Pts',(-10.9112342135998,28.959783762323,-11.5));
#287=CARTESIAN_POINT('Ctrl Pts',(-10.5756454760562,29.263943941411,-11.4439124772646));
#288=CARTESIAN_POINT('Ctrl Pts',(-9.92571470927196,29.8062459347671,-11.1741857059084));
#289=CARTESIAN_POINT('Ctrl Pts',(-9.61201598455699,30.0447687719177,-10.9597635133894));
#290=CARTESIAN_POINT('Ctrl Pts',(-9.17355773486071,30.3610022273644,-10.4776674495348));
#291=CARTESIAN_POINT('Ctrl Pts',(-9.00194336560918,30.4781732272912,-10.2158302721758));
#292=CARTESIAN_POINT('Ctrl Pts',(-8.76938491208712,30.6334763128326,-9.63058891194277));
#293=CARTESIAN_POINT('Ctrl Pts',(-8.70895577984608,30.6721492028917,-9.30712385245711));
#294=CARTESIAN_POINT('Ctrl Pts',(-8.70895577984608,30.6721492028917,-8.67055469965618));
#295=CARTESIAN_POINT('Ctrl Pts',(-8.7783679190192,30.627791536027,-8.32598979327638));
#296=CARTESIAN_POINT('Ctrl Pts',(-9.04129361969715,30.4515173836125,-7.71031553987652));
#297=CARTESIAN_POINT('Ctrl Pts',(-9.23423939037639,30.3188380898177,-7.43918248353695));
#298=CARTESIAN_POINT('Ctrl Pts',(-9.68925872221432,29.9862740649929,-6.98416315169902));
#299=CARTESIAN_POINT('Ctrl Pts',(-9.99051154703905,29.7541345703469,-6.79186681002733));
#300=CARTESIAN_POINT('Ctrl Pts',(-10.6097385260623,29.2332029110065,-6.55022521319108));
#301=CARTESIAN_POINT('Ctrl Pts',(-10.9271537116348,28.9441550391593,-6.5));
#302=CARTESIAN_POINT('Ctrl Pts',(-11.5298967969357,28.3524212546936,-6.5));
#303=CARTESIAN_POINT('Ctrl Pts',(-11.8624708115042,27.9971917396838,-6.56446207776238));
#304=CARTESIAN_POINT('Ctrl Pts',(-12.4721277758783,27.2832632984275,-6.81749603872425));
#305=CARTESIAN_POINT('Ctrl Pts',(-12.7496273654174,26.9245908234803,-7.00513767963855));
#306=CARTESIAN_POINT('Ctrl Pts',(-13.1692102015442,26.3428639623525,-7.42472051576538));
#307=CARTESIAN_POINT('Ctrl Pts',(-13.3544103724049,26.066018494886,-7.6754845126498));
#308=CARTESIAN_POINT('Ctrl Pts',(-13.5560306944995,25.7499792014159,-8.12360481396718));
#309=CARTESIAN_POINT('Ctrl Pts',(-13.6109000575247,25.6612295113558,-8.28479858693663));
#310=CARTESIAN_POINT('Ctrl Pts',(-13.6873135953337,25.5363011876119,-8.6277036058276));
#311=CARTESIAN_POINT('Ctrl Pts',(-13.7089557798461,25.5001231158223,-8.80939320846059));
#312=CARTESIAN_POINT('Ctrl Pts',(-13.7089557798461,25.5001231158223,-9.));
#313=CARTESIAN_POINT('Origin',(15.9687194226713,18.25,0.));
#314=CARTESIAN_POINT('',(7.93725393319377,18.25,-14.));
#315=CARTESIAN_POINT('',(15.9687194226713,18.25,-14.));
#316=CARTESIAN_POINT('',(7.98435971133565,18.25,-14.));
#317=CARTESIAN_POINT('',(15.9687194226713,18.25,0.));
#318=CARTESIAN_POINT('',(15.9687194226713,18.25,0.));
#319=CARTESIAN_POINT('',(7.93725393319377,18.25,0.));
#320=CARTESIAN_POINT('',(7.93725393319377,18.25,0.));
#321=CARTESIAN_POINT('',(7.93725393319377,18.25,0.));
#322=CARTESIAN_POINT('Origin',(-2.22044604925031E-15,17.25,0.));
#323=CARTESIAN_POINT('',(-15.9687194226713,18.25,-14.));
#324=CARTESIAN_POINT('Origin',(-2.22044604925031E-15,17.25,-14.));
#325=CARTESIAN_POINT('',(-15.9687194226713,18.25,0.));
#326=CARTESIAN_POINT('',(-15.9687194226713,18.25,0.));
#327=CARTESIAN_POINT('Origin',(-2.22044604925031E-15,17.25,0.));
#328=CARTESIAN_POINT('Origin',(-7.93725393319377,18.25,0.));
#329=CARTESIAN_POINT('',(-7.93725393319377,18.25,-14.));
#330=CARTESIAN_POINT('',(-3.96862696659689,18.25,-14.));
#331=CARTESIAN_POINT('',(-7.93725393319377,18.25,0.));
#332=CARTESIAN_POINT('',(-7.93725393319377,18.25,0.));
#333=CARTESIAN_POINT('',(-18.8607135864081,18.25,0.));
#334=CARTESIAN_POINT('Origin',(-2.22044604925031E-15,17.25,0.));
#335=CARTESIAN_POINT('Origin',(-2.22044604925031E-15,17.25,-14.));
#336=CARTESIAN_POINT('Origin',(-2.22044604925031E-15,17.25,0.));
#337=CARTESIAN_POINT('Origin',(-2.22044604925031E-15,25.75,0.));
#338=CARTESIAN_POINT('Origin',(-2.22044604925031E-15,25.75,-14.));
#339=UNCERTAINTY_MEASURE_WITH_UNIT(LENGTH_MEASURE(0.01),#343,
'DISTANCE_ACCURACY_VALUE',
'Maximum model space distance between geometric entities at asserted c
onnectivities');
#340=UNCERTAINTY_MEASURE_WITH_UNIT(LENGTH_MEASURE(0.01),#343,
'DISTANCE_ACCURACY_VALUE',
'Maximum model space distance between geometric entities at asserted c
onnectivities');
#341=(
GEOMETRIC_REPRESENTATION_CONTEXT(3)
GLOBAL_UNCERTAINTY_ASSIGNED_CONTEXT((#339))
GLOBAL_UNIT_ASSIGNED_CONTEXT((#343,#345,#346))
REPRESENTATION_CONTEXT('','3D')
);
#342=(
GEOMETRIC_REPRESENTATION_CONTEXT(3)
GLOBAL_UNCERTAINTY_ASSIGNED_CONTEXT((#340))
GLOBAL_UNIT_ASSIGNED_CONTEXT((#343,#345,#346))
REPRESENTATION_CONTEXT('','3D')
);
#343=(
LENGTH_UNIT()
NAMED_UNIT(*)
SI_UNIT(.MILLI.,.METRE.)
);
#344=(
LENGTH_UNIT()
NAMED_UNIT(*)
SI_UNIT(.CENTI.,.METRE.)
);
#345=(
NAMED_UNIT(*)
PLANE_ANGLE_UNIT()
SI_UNIT($,.RADIAN.)
);
#346=(
NAMED_UNIT(*)
SI_UNIT($,.STERADIAN.)
SOLID_ANGLE_UNIT()
);
#347=SHAPE_DEFINITION_REPRESENTATION(#348,#349);
#348=PRODUCT_DEFINITION_SHAPE('',$,#351);
#349=SHAPE_REPRESENTATION('',(#171),#341);
#350=PRODUCT_DEFINITION_CONTEXT('part definition',#355,'design');
#351=PRODUCT_DEFINITION('F-SICT-06','F-SICT-06',#352,#350);
#352=PRODUCT_DEFINITION_FORMATION('',$,#357);
#353=PRODUCT_RELATED_PRODUCT_CATEGORY('F-SICT-06','F-SICT-06',(#357));
#354=APPLICATION_PROTOCOL_DEFINITION('international standard',
'automotive_design',2009,#355);
#355=APPLICATION_CONTEXT(
'Core Data for Automotive Mechanical Design Process');
#356=PRODUCT_CONTEXT('part definition',#355,'mechanical');
#357=PRODUCT('F-SICT-06','F-SICT-06',$,(#356));
#358=PRESENTATION_STYLE_ASSIGNMENT((#359));
#359=SURFACE_STYLE_USAGE(.BOTH.,#362);
#360=SURFACE_STYLE_RENDERING_WITH_PROPERTIES($,#366,(#361));
#361=SURFACE_STYLE_TRANSPARENT(0.);
#362=SURFACE_SIDE_STYLE('',(#363,#360));
#363=SURFACE_STYLE_FILL_AREA(#364);
#364=FILL_AREA_STYLE('',(#365));
#365=FILL_AREA_STYLE_COLOUR('',#366);
#366=COLOUR_RGB('',0.749019607843137,0.749019607843137,0.749019607843137);
ENDSEC;
END-ISO-10303-21;
