ISO-10303-21;
HEADER;
/* Generated by software containing ST-Developer
 * from STEP Tools, Inc. (www.steptools.com) 
 */

FILE_DESCRIPTION(
/* description */ (''),
/* implementation_level */ '2;1');

FILE_NAME(
/* name */ 'F-SICT-08.stp',
/* time_stamp */ '2024-05-04T19:03:04+02:00',
/* author */ ('Utente'),
/* organization */ (''),
/* preprocessor_version */ 'ST-DEVELOPER v20',
/* originating_system */ 'Autodesk Inventor 2024',
/* authorisation */ '');

FILE_SCHEMA (('AUTOMOTIVE_DESIGN { 1 0 10303 214 3 1 1 }'));
ENDSEC;

DATA;
#10=MECHANICAL_DESIGN_GEOMETRIC_PRESENTATION_REPRESENTATION('',(#13),#416);
#11=SHAPE_REPRESENTATION_RELATIONSHIP('SRR','None',#423,#12);
#12=ADVANCED_BREP_SHAPE_REPRESENTATION('',(#14),#415);
#13=STYLED_ITEM('',(#432),#14);
#14=MANIFOLD_SOLID_BREP('Solido1',#239);
#15=FACE_BOUND('',#48,.T.);
#16=FACE_BOUND('',#49,.T.);
#17=FACE_BOUND('',#50,.T.);
#18=FACE_BOUND('',#51,.T.);
#19=FACE_BOUND('',#54,.T.);
#20=FACE_BOUND('',#55,.T.);
#21=FACE_BOUND('',#57,.T.);
#22=FACE_BOUND('',#58,.T.);
#23=PLANE('',#274);
#24=PLANE('',#275);
#25=PLANE('',#276);
#26=PLANE('',#277);
#27=PLANE('',#278);
#28=PLANE('',#282);
#29=PLANE('',#283);
#30=FACE_OUTER_BOUND('',#42,.T.);
#31=FACE_OUTER_BOUND('',#43,.T.);
#32=FACE_OUTER_BOUND('',#44,.T.);
#33=FACE_OUTER_BOUND('',#45,.T.);
#34=FACE_OUTER_BOUND('',#46,.T.);
#35=FACE_OUTER_BOUND('',#47,.T.);
#36=FACE_OUTER_BOUND('',#52,.T.);
#37=FACE_OUTER_BOUND('',#53,.T.);
#38=FACE_OUTER_BOUND('',#56,.T.);
#39=FACE_OUTER_BOUND('',#59,.T.);
#40=FACE_OUTER_BOUND('',#60,.T.);
#41=FACE_OUTER_BOUND('',#61,.T.);
#42=EDGE_LOOP('',(#162,#163,#164,#165));
#43=EDGE_LOOP('',(#166,#167,#168,#169));
#44=EDGE_LOOP('',(#170,#171,#172,#173));
#45=EDGE_LOOP('',(#174,#175,#176,#177));
#46=EDGE_LOOP('',(#178,#179,#180,#181));
#47=EDGE_LOOP('',(#182,#183,#184,#185));
#48=EDGE_LOOP('',(#186));
#49=EDGE_LOOP('',(#187));
#50=EDGE_LOOP('',(#188));
#51=EDGE_LOOP('',(#189));
#52=EDGE_LOOP('',(#190,#191,#192,#193));
#53=EDGE_LOOP('',(#194,#195,#196,#197));
#54=EDGE_LOOP('',(#198));
#55=EDGE_LOOP('',(#199));
#56=EDGE_LOOP('',(#200,#201,#202,#203));
#57=EDGE_LOOP('',(#204));
#58=EDGE_LOOP('',(#205));
#59=EDGE_LOOP('',(#206,#207,#208,#209));
#60=EDGE_LOOP('',(#210,#211,#212,#213,#214,#215));
#61=EDGE_LOOP('',(#216,#217,#218,#219,#220,#221));
#62=LINE('',#355,#82);
#63=LINE('',#361,#83);
#64=LINE('',#367,#84);
#65=LINE('',#373,#85);
#66=LINE('',#378,#86);
#67=LINE('',#380,#87);
#68=LINE('',#382,#88);
#69=LINE('',#383,#89);
#70=LINE('',#386,#90);
#71=LINE('',#388,#91);
#72=LINE('',#389,#92);
#73=LINE('',#392,#93);
#74=LINE('',#394,#94);
#75=LINE('',#395,#95);
#76=LINE('',#398,#96);
#77=LINE('',#400,#97);
#78=LINE('',#401,#98);
#79=LINE('',#404,#99);
#80=LINE('',#406,#100);
#81=LINE('',#407,#101);
#82=VECTOR('',#290,2.375);
#83=VECTOR('',#297,2.375);
#84=VECTOR('',#304,2.375);
#85=VECTOR('',#311,2.375);
#86=VECTOR('',#316,10.);
#87=VECTOR('',#317,10.);
#88=VECTOR('',#318,10.);
#89=VECTOR('',#319,10.);
#90=VECTOR('',#322,10.);
#91=VECTOR('',#323,10.);
#92=VECTOR('',#324,10.);
#93=VECTOR('',#327,10.);
#94=VECTOR('',#328,10.);
#95=VECTOR('',#329,10.);
#96=VECTOR('',#332,10.);
#97=VECTOR('',#333,10.);
#98=VECTOR('',#334,10.);
#99=VECTOR('',#337,10.);
#100=VECTOR('',#338,10.);
#101=VECTOR('',#339,10.);
#102=CIRCLE('',#263,2.375);
#103=CIRCLE('',#264,2.375);
#104=CIRCLE('',#266,2.375);
#105=CIRCLE('',#267,2.375);
#106=CIRCLE('',#269,2.375);
#107=CIRCLE('',#270,2.375);
#108=CIRCLE('',#272,2.375);
#109=CIRCLE('',#273,2.375);
#110=CIRCLE('',#280,8.);
#111=CIRCLE('',#281,8.);
#112=VERTEX_POINT('',#352);
#113=VERTEX_POINT('',#354);
#114=VERTEX_POINT('',#358);
#115=VERTEX_POINT('',#360);
#116=VERTEX_POINT('',#364);
#117=VERTEX_POINT('',#366);
#118=VERTEX_POINT('',#370);
#119=VERTEX_POINT('',#372);
#120=VERTEX_POINT('',#376);
#121=VERTEX_POINT('',#377);
#122=VERTEX_POINT('',#379);
#123=VERTEX_POINT('',#381);
#124=VERTEX_POINT('',#385);
#125=VERTEX_POINT('',#387);
#126=VERTEX_POINT('',#391);
#127=VERTEX_POINT('',#393);
#128=VERTEX_POINT('',#397);
#129=VERTEX_POINT('',#399);
#130=VERTEX_POINT('',#403);
#131=VERTEX_POINT('',#405);
#132=EDGE_CURVE('',#112,#112,#102,.T.);
#133=EDGE_CURVE('',#112,#113,#62,.T.);
#134=EDGE_CURVE('',#113,#113,#103,.T.);
#135=EDGE_CURVE('',#114,#114,#104,.T.);
#136=EDGE_CURVE('',#114,#115,#63,.T.);
#137=EDGE_CURVE('',#115,#115,#105,.T.);
#138=EDGE_CURVE('',#116,#116,#106,.T.);
#139=EDGE_CURVE('',#116,#117,#64,.T.);
#140=EDGE_CURVE('',#117,#117,#107,.T.);
#141=EDGE_CURVE('',#118,#118,#108,.T.);
#142=EDGE_CURVE('',#118,#119,#65,.T.);
#143=EDGE_CURVE('',#119,#119,#109,.T.);
#144=EDGE_CURVE('',#120,#121,#66,.T.);
#145=EDGE_CURVE('',#122,#121,#67,.T.);
#146=EDGE_CURVE('',#123,#122,#68,.T.);
#147=EDGE_CURVE('',#123,#120,#69,.T.);
#148=EDGE_CURVE('',#121,#124,#70,.T.);
#149=EDGE_CURVE('',#125,#124,#71,.T.);
#150=EDGE_CURVE('',#122,#125,#72,.T.);
#151=EDGE_CURVE('',#124,#126,#73,.T.);
#152=EDGE_CURVE('',#127,#126,#74,.T.);
#153=EDGE_CURVE('',#125,#127,#75,.T.);
#154=EDGE_CURVE('',#128,#120,#76,.T.);
#155=EDGE_CURVE('',#129,#123,#77,.T.);
#156=EDGE_CURVE('',#129,#128,#78,.T.);
#157=EDGE_CURVE('',#126,#130,#79,.T.);
#158=EDGE_CURVE('',#131,#130,#80,.T.);
#159=EDGE_CURVE('',#127,#131,#81,.T.);
#160=EDGE_CURVE('',#130,#128,#110,.T.);
#161=EDGE_CURVE('',#131,#129,#111,.T.);
#162=ORIENTED_EDGE('',*,*,#132,.F.);
#163=ORIENTED_EDGE('',*,*,#133,.T.);
#164=ORIENTED_EDGE('',*,*,#134,.F.);
#165=ORIENTED_EDGE('',*,*,#133,.F.);
#166=ORIENTED_EDGE('',*,*,#135,.F.);
#167=ORIENTED_EDGE('',*,*,#136,.T.);
#168=ORIENTED_EDGE('',*,*,#137,.F.);
#169=ORIENTED_EDGE('',*,*,#136,.F.);
#170=ORIENTED_EDGE('',*,*,#138,.F.);
#171=ORIENTED_EDGE('',*,*,#139,.T.);
#172=ORIENTED_EDGE('',*,*,#140,.F.);
#173=ORIENTED_EDGE('',*,*,#139,.F.);
#174=ORIENTED_EDGE('',*,*,#141,.F.);
#175=ORIENTED_EDGE('',*,*,#142,.T.);
#176=ORIENTED_EDGE('',*,*,#143,.F.);
#177=ORIENTED_EDGE('',*,*,#142,.F.);
#178=ORIENTED_EDGE('',*,*,#144,.T.);
#179=ORIENTED_EDGE('',*,*,#145,.F.);
#180=ORIENTED_EDGE('',*,*,#146,.F.);
#181=ORIENTED_EDGE('',*,*,#147,.T.);
#182=ORIENTED_EDGE('',*,*,#148,.T.);
#183=ORIENTED_EDGE('',*,*,#149,.F.);
#184=ORIENTED_EDGE('',*,*,#150,.F.);
#185=ORIENTED_EDGE('',*,*,#145,.T.);
#186=ORIENTED_EDGE('',*,*,#134,.T.);
#187=ORIENTED_EDGE('',*,*,#137,.T.);
#188=ORIENTED_EDGE('',*,*,#140,.T.);
#189=ORIENTED_EDGE('',*,*,#143,.T.);
#190=ORIENTED_EDGE('',*,*,#151,.T.);
#191=ORIENTED_EDGE('',*,*,#152,.F.);
#192=ORIENTED_EDGE('',*,*,#153,.F.);
#193=ORIENTED_EDGE('',*,*,#149,.T.);
#194=ORIENTED_EDGE('',*,*,#154,.T.);
#195=ORIENTED_EDGE('',*,*,#147,.F.);
#196=ORIENTED_EDGE('',*,*,#155,.F.);
#197=ORIENTED_EDGE('',*,*,#156,.T.);
#198=ORIENTED_EDGE('',*,*,#138,.T.);
#199=ORIENTED_EDGE('',*,*,#141,.T.);
#200=ORIENTED_EDGE('',*,*,#157,.T.);
#201=ORIENTED_EDGE('',*,*,#158,.F.);
#202=ORIENTED_EDGE('',*,*,#159,.F.);
#203=ORIENTED_EDGE('',*,*,#152,.T.);
#204=ORIENTED_EDGE('',*,*,#132,.T.);
#205=ORIENTED_EDGE('',*,*,#135,.T.);
#206=ORIENTED_EDGE('',*,*,#160,.T.);
#207=ORIENTED_EDGE('',*,*,#156,.F.);
#208=ORIENTED_EDGE('',*,*,#161,.F.);
#209=ORIENTED_EDGE('',*,*,#158,.T.);
#210=ORIENTED_EDGE('',*,*,#159,.T.);
#211=ORIENTED_EDGE('',*,*,#161,.T.);
#212=ORIENTED_EDGE('',*,*,#155,.T.);
#213=ORIENTED_EDGE('',*,*,#146,.T.);
#214=ORIENTED_EDGE('',*,*,#150,.T.);
#215=ORIENTED_EDGE('',*,*,#153,.T.);
#216=ORIENTED_EDGE('',*,*,#157,.F.);
#217=ORIENTED_EDGE('',*,*,#151,.F.);
#218=ORIENTED_EDGE('',*,*,#148,.F.);
#219=ORIENTED_EDGE('',*,*,#144,.F.);
#220=ORIENTED_EDGE('',*,*,#154,.F.);
#221=ORIENTED_EDGE('',*,*,#160,.F.);
#222=CYLINDRICAL_SURFACE('',#262,2.375);
#223=CYLINDRICAL_SURFACE('',#265,2.375);
#224=CYLINDRICAL_SURFACE('',#268,2.375);
#225=CYLINDRICAL_SURFACE('',#271,2.375);
#226=CYLINDRICAL_SURFACE('',#279,8.);
#227=ADVANCED_FACE('',(#30),#222,.F.);
#228=ADVANCED_FACE('',(#31),#223,.F.);
#229=ADVANCED_FACE('',(#32),#224,.F.);
#230=ADVANCED_FACE('',(#33),#225,.F.);
#231=ADVANCED_FACE('',(#34),#23,.T.);
#232=ADVANCED_FACE('',(#35,#15,#16,#17,#18),#24,.T.);
#233=ADVANCED_FACE('',(#36),#25,.T.);
#234=ADVANCED_FACE('',(#37,#19,#20),#26,.T.);
#235=ADVANCED_FACE('',(#38,#21,#22),#27,.T.);
#236=ADVANCED_FACE('',(#39),#226,.F.);
#237=ADVANCED_FACE('',(#40),#28,.T.);
#238=ADVANCED_FACE('',(#41),#29,.T.);
#239=CLOSED_SHELL('',(#227,#228,#229,#230,#231,#232,#233,#234,#235,#236,
#237,#238));
#240=DERIVED_UNIT_ELEMENT(#243,1.);
#241=DERIVED_UNIT_ELEMENT(#418,-3.);
#242=DIMENSIONAL_EXPONENTS(0.,1.,0.,0.,0.,0.,0.);
#243=(
CONVERSION_BASED_UNIT('gram',#245)
MASS_UNIT()
NAMED_UNIT(#242)
);
#244=(
MASS_UNIT()
NAMED_UNIT(*)
SI_UNIT(.KILO.,.GRAM.)
);
#245=MASS_MEASURE_WITH_UNIT(MASS_MEASURE(0.001),#244);
#246=DERIVED_UNIT((#240,#241));
#247=MEASURE_REPRESENTATION_ITEM('density measure',
POSITIVE_RATIO_MEASURE(1.),#246);
#248=PROPERTY_DEFINITION_REPRESENTATION(#253,#250);
#249=PROPERTY_DEFINITION_REPRESENTATION(#254,#251);
#250=REPRESENTATION('material name',(#252),#415);
#251=REPRESENTATION('density',(#247),#415);
#252=DESCRIPTIVE_REPRESENTATION_ITEM('Generico','Generico');
#253=PROPERTY_DEFINITION('material property','material name',#425);
#254=PROPERTY_DEFINITION('material property','density of part',#425);
#255=DATE_TIME_ROLE('creation_date');
#256=APPLIED_DATE_AND_TIME_ASSIGNMENT(#257,#255,(#425));
#257=DATE_AND_TIME(#258,#259);
#258=CALENDAR_DATE(2024,4,5);
#259=LOCAL_TIME(0,0,0.,#260);
#260=COORDINATED_UNIVERSAL_TIME_OFFSET(0,0,.BEHIND.);
#261=AXIS2_PLACEMENT_3D('',#350,#284,#285);
#262=AXIS2_PLACEMENT_3D('',#351,#286,#287);
#263=AXIS2_PLACEMENT_3D('',#353,#288,#289);
#264=AXIS2_PLACEMENT_3D('',#356,#291,#292);
#265=AXIS2_PLACEMENT_3D('',#357,#293,#294);
#266=AXIS2_PLACEMENT_3D('',#359,#295,#296);
#267=AXIS2_PLACEMENT_3D('',#362,#298,#299);
#268=AXIS2_PLACEMENT_3D('',#363,#300,#301);
#269=AXIS2_PLACEMENT_3D('',#365,#302,#303);
#270=AXIS2_PLACEMENT_3D('',#368,#305,#306);
#271=AXIS2_PLACEMENT_3D('',#369,#307,#308);
#272=AXIS2_PLACEMENT_3D('',#371,#309,#310);
#273=AXIS2_PLACEMENT_3D('',#374,#312,#313);
#274=AXIS2_PLACEMENT_3D('',#375,#314,#315);
#275=AXIS2_PLACEMENT_3D('',#384,#320,#321);
#276=AXIS2_PLACEMENT_3D('',#390,#325,#326);
#277=AXIS2_PLACEMENT_3D('',#396,#330,#331);
#278=AXIS2_PLACEMENT_3D('',#402,#335,#336);
#279=AXIS2_PLACEMENT_3D('',#408,#340,#341);
#280=AXIS2_PLACEMENT_3D('',#409,#342,#343);
#281=AXIS2_PLACEMENT_3D('',#410,#344,#345);
#282=AXIS2_PLACEMENT_3D('',#411,#346,#347);
#283=AXIS2_PLACEMENT_3D('',#412,#348,#349);
#284=DIRECTION('axis',(0.,0.,1.));
#285=DIRECTION('refdir',(1.,0.,0.));
#286=DIRECTION('center_axis',(0.,1.,0.));
#287=DIRECTION('ref_axis',(1.,0.,0.));
#288=DIRECTION('center_axis',(0.,-1.,0.));
#289=DIRECTION('ref_axis',(1.,0.,0.));
#290=DIRECTION('',(0.,-1.,0.));
#291=DIRECTION('center_axis',(0.,1.,0.));
#292=DIRECTION('ref_axis',(1.,0.,0.));
#293=DIRECTION('center_axis',(0.,1.,0.));
#294=DIRECTION('ref_axis',(1.,0.,0.));
#295=DIRECTION('center_axis',(0.,-1.,0.));
#296=DIRECTION('ref_axis',(1.,0.,0.));
#297=DIRECTION('',(0.,-1.,0.));
#298=DIRECTION('center_axis',(0.,1.,0.));
#299=DIRECTION('ref_axis',(1.,0.,0.));
#300=DIRECTION('center_axis',(0.,1.,0.));
#301=DIRECTION('ref_axis',(1.,0.,0.));
#302=DIRECTION('center_axis',(0.,-1.,0.));
#303=DIRECTION('ref_axis',(1.,0.,0.));
#304=DIRECTION('',(0.,-1.,0.));
#305=DIRECTION('center_axis',(0.,1.,0.));
#306=DIRECTION('ref_axis',(1.,0.,0.));
#307=DIRECTION('center_axis',(0.,1.,0.));
#308=DIRECTION('ref_axis',(1.,0.,0.));
#309=DIRECTION('center_axis',(0.,-1.,0.));
#310=DIRECTION('ref_axis',(1.,0.,0.));
#311=DIRECTION('',(0.,-1.,0.));
#312=DIRECTION('center_axis',(0.,1.,0.));
#313=DIRECTION('ref_axis',(1.,0.,0.));
#314=DIRECTION('center_axis',(-1.,0.,0.));
#315=DIRECTION('ref_axis',(0.,1.,0.));
#316=DIRECTION('',(0.,-1.,0.));
#317=DIRECTION('',(0.,0.,-1.));
#318=DIRECTION('',(0.,-1.,0.));
#319=DIRECTION('',(0.,0.,-1.));
#320=DIRECTION('center_axis',(0.,-1.,0.));
#321=DIRECTION('ref_axis',(-1.,0.,0.));
#322=DIRECTION('',(1.,0.,0.));
#323=DIRECTION('',(0.,0.,-1.));
#324=DIRECTION('',(1.,0.,0.));
#325=DIRECTION('center_axis',(1.,0.,0.));
#326=DIRECTION('ref_axis',(0.,-1.,0.));
#327=DIRECTION('',(0.,1.,0.));
#328=DIRECTION('',(0.,0.,-1.));
#329=DIRECTION('',(0.,1.,0.));
#330=DIRECTION('center_axis',(0.,1.,0.));
#331=DIRECTION('ref_axis',(1.,0.,0.));
#332=DIRECTION('',(-1.,0.,0.));
#333=DIRECTION('',(-1.,-6.91226880996781E-17,0.));
#334=DIRECTION('',(0.,0.,-1.));
#335=DIRECTION('center_axis',(0.,1.,0.));
#336=DIRECTION('ref_axis',(1.,0.,0.));
#337=DIRECTION('',(-1.,0.,0.));
#338=DIRECTION('',(0.,0.,-1.));
#339=DIRECTION('',(-1.,0.,0.));
#340=DIRECTION('center_axis',(0.,0.,-1.));
#341=DIRECTION('ref_axis',(-1.,0.,0.));
#342=DIRECTION('center_axis',(0.,0.,-1.));
#343=DIRECTION('ref_axis',(-1.,0.,0.));
#344=DIRECTION('center_axis',(0.,0.,-1.));
#345=DIRECTION('ref_axis',(-1.,0.,0.));
#346=DIRECTION('center_axis',(0.,0.,1.));
#347=DIRECTION('ref_axis',(1.,0.,0.));
#348=DIRECTION('center_axis',(0.,0.,-1.));
#349=DIRECTION('ref_axis',(-1.,0.,0.));
#350=CARTESIAN_POINT('',(0.,0.,0.));
#351=CARTESIAN_POINT('Origin',(5.,-15.75,-14.142135623731));
#352=CARTESIAN_POINT('',(2.625,-1.,-14.142135623731));
#353=CARTESIAN_POINT('Origin',(5.,-1.,-14.142135623731));
#354=CARTESIAN_POINT('',(2.625,-13.,-14.142135623731));
#355=CARTESIAN_POINT('',(2.625,-15.75,-14.142135623731));
#356=CARTESIAN_POINT('Origin',(5.,-13.,-14.142135623731));
#357=CARTESIAN_POINT('Origin',(5.,-15.75,-42.4264068711929));
#358=CARTESIAN_POINT('',(2.625,-1.,-42.4264068711929));
#359=CARTESIAN_POINT('Origin',(5.,-1.,-42.4264068711929));
#360=CARTESIAN_POINT('',(2.625,-13.,-42.4264068711929));
#361=CARTESIAN_POINT('',(2.625,-15.75,-42.4264068711929));
#362=CARTESIAN_POINT('Origin',(5.,-13.,-42.4264068711929));
#363=CARTESIAN_POINT('Origin',(-31.,-15.75,-14.142135623731));
#364=CARTESIAN_POINT('',(-33.375,-1.,-14.142135623731));
#365=CARTESIAN_POINT('Origin',(-31.,-1.,-14.142135623731));
#366=CARTESIAN_POINT('',(-33.375,-13.,-14.142135623731));
#367=CARTESIAN_POINT('',(-33.375,-15.75,-14.142135623731));
#368=CARTESIAN_POINT('Origin',(-31.,-13.,-14.142135623731));
#369=CARTESIAN_POINT('Origin',(-31.,-15.75,-42.4264068711929));
#370=CARTESIAN_POINT('',(-33.375,-1.,-42.4264068711929));
#371=CARTESIAN_POINT('Origin',(-31.,-1.,-42.4264068711929));
#372=CARTESIAN_POINT('',(-33.375,-13.,-42.4264068711929));
#373=CARTESIAN_POINT('',(-33.375,-15.75,-42.4264068711929));
#374=CARTESIAN_POINT('Origin',(-31.,-13.,-42.4264068711929));
#375=CARTESIAN_POINT('Origin',(-36.,-13.,0.));
#376=CARTESIAN_POINT('',(-36.,-1.,-56.5685424949238));
#377=CARTESIAN_POINT('',(-36.,-13.,-56.5685424949238));
#378=CARTESIAN_POINT('',(-36.,-10.,-56.5685424949238));
#379=CARTESIAN_POINT('',(-36.,-13.,0.));
#380=CARTESIAN_POINT('',(-36.,-13.,0.));
#381=CARTESIAN_POINT('',(-36.,-1.,0.));
#382=CARTESIAN_POINT('',(-36.,-1.,0.));
#383=CARTESIAN_POINT('',(-36.,-1.,0.));
#384=CARTESIAN_POINT('Origin',(10.,-13.,0.));
#385=CARTESIAN_POINT('',(10.,-13.,-56.5685424949238));
#386=CARTESIAN_POINT('',(-13.,-13.,-56.5685424949238));
#387=CARTESIAN_POINT('',(10.,-13.,0.));
#388=CARTESIAN_POINT('',(10.,-13.,0.));
#389=CARTESIAN_POINT('',(-13.,-13.,0.));
#390=CARTESIAN_POINT('Origin',(10.,-1.,0.));
#391=CARTESIAN_POINT('',(10.,-1.,-56.5685424949238));
#392=CARTESIAN_POINT('',(10.,-4.,-56.5685424949238));
#393=CARTESIAN_POINT('',(10.,-1.,0.));
#394=CARTESIAN_POINT('',(10.,-1.,0.));
#395=CARTESIAN_POINT('',(10.,-13.,0.));
#396=CARTESIAN_POINT('Origin',(-25.9614813968157,-1.,0.));
#397=CARTESIAN_POINT('',(-20.9372539331938,-1.,-56.5685424949238));
#398=CARTESIAN_POINT('',(-19.4807406984079,-1.,-56.5685424949238));
#399=CARTESIAN_POINT('',(-20.9372539331938,-1.,0.));
#400=CARTESIAN_POINT('',(-25.9614813968157,-1.,0.));
#401=CARTESIAN_POINT('',(-20.9372539331938,-1.,0.));
#402=CARTESIAN_POINT('Origin',(-5.06274606680623,-1.,0.));
#403=CARTESIAN_POINT('',(-5.06274606680623,-1.,-56.5685424949238));
#404=CARTESIAN_POINT('',(-9.03137303340311,-1.,-56.5685424949238));
#405=CARTESIAN_POINT('',(-5.06274606680623,-1.,0.));
#406=CARTESIAN_POINT('',(-5.06274606680623,-1.,0.));
#407=CARTESIAN_POINT('',(0.,-1.,0.));
#408=CARTESIAN_POINT('Origin',(-13.,0.,0.));
#409=CARTESIAN_POINT('Origin',(-13.,0.,-56.5685424949238));
#410=CARTESIAN_POINT('Origin',(-13.,0.,0.));
#411=CARTESIAN_POINT('Origin',(-13.,-7.,0.));
#412=CARTESIAN_POINT('Origin',(-13.,-7.,-56.5685424949238));
#413=UNCERTAINTY_MEASURE_WITH_UNIT(LENGTH_MEASURE(0.01),#417,
'DISTANCE_ACCURACY_VALUE',
'Maximum model space distance between geometric entities at asserted c
onnectivities');
#414=UNCERTAINTY_MEASURE_WITH_UNIT(LENGTH_MEASURE(0.01),#417,
'DISTANCE_ACCURACY_VALUE',
'Maximum model space distance between geometric entities at asserted c
onnectivities');
#415=(
GEOMETRIC_REPRESENTATION_CONTEXT(3)
GLOBAL_UNCERTAINTY_ASSIGNED_CONTEXT((#413))
GLOBAL_UNIT_ASSIGNED_CONTEXT((#417,#419,#420))
REPRESENTATION_CONTEXT('','3D')
);
#416=(
GEOMETRIC_REPRESENTATION_CONTEXT(3)
GLOBAL_UNCERTAINTY_ASSIGNED_CONTEXT((#414))
GLOBAL_UNIT_ASSIGNED_CONTEXT((#417,#419,#420))
REPRESENTATION_CONTEXT('','3D')
);
#417=(
LENGTH_UNIT()
NAMED_UNIT(*)
SI_UNIT(.MILLI.,.METRE.)
);
#418=(
LENGTH_UNIT()
NAMED_UNIT(*)
SI_UNIT(.CENTI.,.METRE.)
);
#419=(
NAMED_UNIT(*)
PLANE_ANGLE_UNIT()
SI_UNIT($,.RADIAN.)
);
#420=(
NAMED_UNIT(*)
SI_UNIT($,.STERADIAN.)
SOLID_ANGLE_UNIT()
);
#421=SHAPE_DEFINITION_REPRESENTATION(#422,#423);
#422=PRODUCT_DEFINITION_SHAPE('',$,#425);
#423=SHAPE_REPRESENTATION('',(#261),#415);
#424=PRODUCT_DEFINITION_CONTEXT('part definition',#429,'design');
#425=PRODUCT_DEFINITION('F-SICT-08','F-SICT-08',#426,#424);
#426=PRODUCT_DEFINITION_FORMATION('',$,#431);
#427=PRODUCT_RELATED_PRODUCT_CATEGORY('F-SICT-08','F-SICT-08',(#431));
#428=APPLICATION_PROTOCOL_DEFINITION('international standard',
'automotive_design',2009,#429);
#429=APPLICATION_CONTEXT(
'Core Data for Automotive Mechanical Design Process');
#430=PRODUCT_CONTEXT('part definition',#429,'mechanical');
#431=PRODUCT('F-SICT-08','F-SICT-08',$,(#430));
#432=PRESENTATION_STYLE_ASSIGNMENT((#433));
#433=SURFACE_STYLE_USAGE(.BOTH.,#436);
#434=SURFACE_STYLE_RENDERING_WITH_PROPERTIES($,#440,(#435));
#435=SURFACE_STYLE_TRANSPARENT(0.);
#436=SURFACE_SIDE_STYLE('',(#437,#434));
#437=SURFACE_STYLE_FILL_AREA(#438);
#438=FILL_AREA_STYLE('',(#439));
#439=FILL_AREA_STYLE_COLOUR('',#440);
#440=COLOUR_RGB('',0.749019607843137,0.749019607843137,0.749019607843137);
ENDSEC;
END-ISO-10303-21;
