ISO-10303-21;
HEADER;
/* Generated by software containing ST-Developer
 * from STEP Tools, Inc. (www.steptools.com) 
 */

FILE_DESCRIPTION(
/* description */ (''),
/* implementation_level */ '2;1');

FILE_NAME(
/* name */ 'F-SICT-09.stp',
/* time_stamp */ '2024-05-04T19:02:49+02:00',
/* author */ ('Utente'),
/* organization */ (''),
/* preprocessor_version */ 'ST-DEVELOPER v20',
/* originating_system */ 'Autodesk Inventor 2024',
/* authorisation */ '');

FILE_SCHEMA (('AUTOMOTIVE_DESIGN { 1 0 10303 214 3 1 1 }'));
ENDSEC;

DATA;
#10=MECHANICAL_DESIGN_GEOMETRIC_PRESENTATION_REPRESENTATION('',(#13),#435);
#11=SHAPE_REPRESENTATION_RELATIONSHIP('SRR','None',#442,#12);
#12=ADVANCED_BREP_SHAPE_REPRESENTATION('',(#14),#434);
#13=STYLED_ITEM('',(#451),#14);
#14=MANIFOLD_SOLID_BREP('Solido1',#258);
#15=CYLINDRICAL_SURFACE('',#287,1.7);
#16=CYLINDRICAL_SURFACE('',#289,1.7);
#17=FACE_BOUND('',#40,.T.);
#18=FACE_BOUND('',#43,.T.);
#19=FACE_BOUND('',#47,.T.);
#20=FACE_BOUND('',#51,.T.);
#21=CIRCLE('',#283,1.7);
#22=CIRCLE('',#286,1.7);
#23=CIRCLE('',#288,1.7);
#24=CIRCLE('',#290,1.7);
#25=FACE_OUTER_BOUND('',#38,.T.);
#26=FACE_OUTER_BOUND('',#39,.T.);
#27=FACE_OUTER_BOUND('',#41,.T.);
#28=FACE_OUTER_BOUND('',#42,.T.);
#29=FACE_OUTER_BOUND('',#44,.T.);
#30=FACE_OUTER_BOUND('',#45,.T.);
#31=FACE_OUTER_BOUND('',#46,.T.);
#32=FACE_OUTER_BOUND('',#48,.T.);
#33=FACE_OUTER_BOUND('',#49,.T.);
#34=FACE_OUTER_BOUND('',#50,.T.);
#35=FACE_OUTER_BOUND('',#52,.T.);
#36=FACE_OUTER_BOUND('',#53,.T.);
#37=FACE_OUTER_BOUND('',#54,.T.);
#38=EDGE_LOOP('',(#168,#169,#170,#171));
#39=EDGE_LOOP('',(#172,#173,#174,#175));
#40=EDGE_LOOP('',(#176));
#41=EDGE_LOOP('',(#177,#178,#179,#180,#181,#182,#183,#184,#185));
#42=EDGE_LOOP('',(#186,#187,#188,#189));
#43=EDGE_LOOP('',(#190));
#44=EDGE_LOOP('',(#191,#192,#193,#194));
#45=EDGE_LOOP('',(#195,#196,#197,#198));
#46=EDGE_LOOP('',(#199,#200,#201,#202));
#47=EDGE_LOOP('',(#203));
#48=EDGE_LOOP('',(#204,#205,#206,#207));
#49=EDGE_LOOP('',(#208,#209,#210,#211));
#50=EDGE_LOOP('',(#212,#213,#214,#215));
#51=EDGE_LOOP('',(#216));
#52=EDGE_LOOP('',(#217,#218,#219,#220));
#53=EDGE_LOOP('',(#221,#222,#223,#224));
#54=EDGE_LOOP('',(#225,#226,#227,#228,#229,#230,#231,#232,#233));
#55=LINE('',#367,#84);
#56=LINE('',#369,#85);
#57=LINE('',#371,#86);
#58=LINE('',#372,#87);
#59=LINE('',#376,#88);
#60=LINE('',#377,#89);
#61=LINE('',#378,#90);
#62=LINE('',#383,#91);
#63=LINE('',#385,#92);
#64=LINE('',#387,#93);
#65=LINE('',#389,#94);
#66=LINE('',#391,#95);
#67=LINE('',#393,#96);
#68=LINE('',#394,#97);
#69=LINE('',#397,#98);
#70=LINE('',#398,#99);
#71=LINE('',#403,#100);
#72=LINE('',#407,#101);
#73=LINE('',#411,#102);
#74=LINE('',#413,#103);
#75=LINE('',#414,#104);
#76=LINE('',#416,#105);
#77=LINE('',#419,#106);
#78=LINE('',#420,#107);
#79=LINE('',#423,#108);
#80=LINE('',#424,#109);
#81=LINE('',#427,#110);
#82=LINE('',#428,#111);
#83=LINE('',#430,#112);
#84=VECTOR('',#302,10.);
#85=VECTOR('',#303,10.);
#86=VECTOR('',#304,10.);
#87=VECTOR('',#305,10.);
#88=VECTOR('',#308,10.);
#89=VECTOR('',#309,10.);
#90=VECTOR('',#310,10.);
#91=VECTOR('',#315,10.);
#92=VECTOR('',#316,10.);
#93=VECTOR('',#317,10.);
#94=VECTOR('',#318,10.);
#95=VECTOR('',#319,10.);
#96=VECTOR('',#320,10.);
#97=VECTOR('',#321,10.);
#98=VECTOR('',#324,10.);
#99=VECTOR('',#325,10.);
#100=VECTOR('',#330,1.7);
#101=VECTOR('',#335,1.7);
#102=VECTOR('',#340,10.);
#103=VECTOR('',#341,10.);
#104=VECTOR('',#342,10.);
#105=VECTOR('',#345,10.);
#106=VECTOR('',#348,10.);
#107=VECTOR('',#349,10.);
#108=VECTOR('',#352,10.);
#109=VECTOR('',#353,10.);
#110=VECTOR('',#356,10.);
#111=VECTOR('',#357,10.);
#112=VECTOR('',#360,10.);
#113=VERTEX_POINT('',#365);
#114=VERTEX_POINT('',#366);
#115=VERTEX_POINT('',#368);
#116=VERTEX_POINT('',#370);
#117=VERTEX_POINT('',#374);
#118=VERTEX_POINT('',#375);
#119=VERTEX_POINT('',#379);
#120=VERTEX_POINT('',#382);
#121=VERTEX_POINT('',#384);
#122=VERTEX_POINT('',#386);
#123=VERTEX_POINT('',#388);
#124=VERTEX_POINT('',#390);
#125=VERTEX_POINT('',#392);
#126=VERTEX_POINT('',#396);
#127=VERTEX_POINT('',#399);
#128=VERTEX_POINT('',#402);
#129=VERTEX_POINT('',#406);
#130=VERTEX_POINT('',#410);
#131=VERTEX_POINT('',#412);
#132=VERTEX_POINT('',#418);
#133=VERTEX_POINT('',#422);
#134=VERTEX_POINT('',#426);
#135=EDGE_CURVE('',#113,#114,#55,.T.);
#136=EDGE_CURVE('',#115,#113,#56,.T.);
#137=EDGE_CURVE('',#115,#116,#57,.T.);
#138=EDGE_CURVE('',#114,#116,#58,.T.);
#139=EDGE_CURVE('',#117,#118,#59,.T.);
#140=EDGE_CURVE('',#116,#117,#60,.T.);
#141=EDGE_CURVE('',#118,#115,#61,.T.);
#142=EDGE_CURVE('',#119,#119,#21,.T.);
#143=EDGE_CURVE('',#120,#113,#62,.T.);
#144=EDGE_CURVE('',#121,#120,#63,.T.);
#145=EDGE_CURVE('',#122,#121,#64,.T.);
#146=EDGE_CURVE('',#123,#122,#65,.T.);
#147=EDGE_CURVE('',#124,#123,#66,.T.);
#148=EDGE_CURVE('',#125,#124,#67,.T.);
#149=EDGE_CURVE('',#118,#125,#68,.T.);
#150=EDGE_CURVE('',#126,#114,#69,.T.);
#151=EDGE_CURVE('',#126,#120,#70,.T.);
#152=EDGE_CURVE('',#127,#127,#22,.T.);
#153=EDGE_CURVE('',#119,#128,#71,.T.);
#154=EDGE_CURVE('',#128,#128,#23,.T.);
#155=EDGE_CURVE('',#127,#129,#72,.T.);
#156=EDGE_CURVE('',#129,#129,#24,.T.);
#157=EDGE_CURVE('',#130,#121,#73,.T.);
#158=EDGE_CURVE('',#131,#130,#74,.T.);
#159=EDGE_CURVE('',#131,#122,#75,.T.);
#160=EDGE_CURVE('',#130,#126,#76,.T.);
#161=EDGE_CURVE('',#132,#125,#77,.T.);
#162=EDGE_CURVE('',#117,#132,#78,.T.);
#163=EDGE_CURVE('',#133,#124,#79,.T.);
#164=EDGE_CURVE('',#132,#133,#80,.T.);
#165=EDGE_CURVE('',#134,#123,#81,.T.);
#166=EDGE_CURVE('',#133,#134,#82,.T.);
#167=EDGE_CURVE('',#134,#131,#83,.T.);
#168=ORIENTED_EDGE('',*,*,#135,.F.);
#169=ORIENTED_EDGE('',*,*,#136,.F.);
#170=ORIENTED_EDGE('',*,*,#137,.T.);
#171=ORIENTED_EDGE('',*,*,#138,.F.);
#172=ORIENTED_EDGE('',*,*,#139,.F.);
#173=ORIENTED_EDGE('',*,*,#140,.F.);
#174=ORIENTED_EDGE('',*,*,#137,.F.);
#175=ORIENTED_EDGE('',*,*,#141,.F.);
#176=ORIENTED_EDGE('',*,*,#142,.F.);
#177=ORIENTED_EDGE('',*,*,#141,.T.);
#178=ORIENTED_EDGE('',*,*,#136,.T.);
#179=ORIENTED_EDGE('',*,*,#143,.F.);
#180=ORIENTED_EDGE('',*,*,#144,.F.);
#181=ORIENTED_EDGE('',*,*,#145,.F.);
#182=ORIENTED_EDGE('',*,*,#146,.F.);
#183=ORIENTED_EDGE('',*,*,#147,.F.);
#184=ORIENTED_EDGE('',*,*,#148,.F.);
#185=ORIENTED_EDGE('',*,*,#149,.F.);
#186=ORIENTED_EDGE('',*,*,#135,.T.);
#187=ORIENTED_EDGE('',*,*,#150,.F.);
#188=ORIENTED_EDGE('',*,*,#151,.T.);
#189=ORIENTED_EDGE('',*,*,#143,.T.);
#190=ORIENTED_EDGE('',*,*,#152,.T.);
#191=ORIENTED_EDGE('',*,*,#142,.T.);
#192=ORIENTED_EDGE('',*,*,#153,.T.);
#193=ORIENTED_EDGE('',*,*,#154,.F.);
#194=ORIENTED_EDGE('',*,*,#153,.F.);
#195=ORIENTED_EDGE('',*,*,#152,.F.);
#196=ORIENTED_EDGE('',*,*,#155,.T.);
#197=ORIENTED_EDGE('',*,*,#156,.F.);
#198=ORIENTED_EDGE('',*,*,#155,.F.);
#199=ORIENTED_EDGE('',*,*,#145,.T.);
#200=ORIENTED_EDGE('',*,*,#157,.F.);
#201=ORIENTED_EDGE('',*,*,#158,.F.);
#202=ORIENTED_EDGE('',*,*,#159,.T.);
#203=ORIENTED_EDGE('',*,*,#156,.T.);
#204=ORIENTED_EDGE('',*,*,#144,.T.);
#205=ORIENTED_EDGE('',*,*,#151,.F.);
#206=ORIENTED_EDGE('',*,*,#160,.F.);
#207=ORIENTED_EDGE('',*,*,#157,.T.);
#208=ORIENTED_EDGE('',*,*,#139,.T.);
#209=ORIENTED_EDGE('',*,*,#149,.T.);
#210=ORIENTED_EDGE('',*,*,#161,.F.);
#211=ORIENTED_EDGE('',*,*,#162,.F.);
#212=ORIENTED_EDGE('',*,*,#148,.T.);
#213=ORIENTED_EDGE('',*,*,#163,.F.);
#214=ORIENTED_EDGE('',*,*,#164,.F.);
#215=ORIENTED_EDGE('',*,*,#161,.T.);
#216=ORIENTED_EDGE('',*,*,#154,.T.);
#217=ORIENTED_EDGE('',*,*,#147,.T.);
#218=ORIENTED_EDGE('',*,*,#165,.F.);
#219=ORIENTED_EDGE('',*,*,#166,.F.);
#220=ORIENTED_EDGE('',*,*,#163,.T.);
#221=ORIENTED_EDGE('',*,*,#146,.T.);
#222=ORIENTED_EDGE('',*,*,#159,.F.);
#223=ORIENTED_EDGE('',*,*,#167,.F.);
#224=ORIENTED_EDGE('',*,*,#165,.T.);
#225=ORIENTED_EDGE('',*,*,#140,.T.);
#226=ORIENTED_EDGE('',*,*,#162,.T.);
#227=ORIENTED_EDGE('',*,*,#164,.T.);
#228=ORIENTED_EDGE('',*,*,#166,.T.);
#229=ORIENTED_EDGE('',*,*,#167,.T.);
#230=ORIENTED_EDGE('',*,*,#158,.T.);
#231=ORIENTED_EDGE('',*,*,#160,.T.);
#232=ORIENTED_EDGE('',*,*,#150,.T.);
#233=ORIENTED_EDGE('',*,*,#138,.T.);
#234=PLANE('',#281);
#235=PLANE('',#282);
#236=PLANE('',#284);
#237=PLANE('',#285);
#238=PLANE('',#291);
#239=PLANE('',#292);
#240=PLANE('',#293);
#241=PLANE('',#294);
#242=PLANE('',#295);
#243=PLANE('',#296);
#244=PLANE('',#297);
#245=ADVANCED_FACE('',(#25),#234,.F.);
#246=ADVANCED_FACE('',(#26,#17),#235,.F.);
#247=ADVANCED_FACE('',(#27),#236,.T.);
#248=ADVANCED_FACE('',(#28,#18),#237,.T.);
#249=ADVANCED_FACE('',(#29),#15,.F.);
#250=ADVANCED_FACE('',(#30),#16,.F.);
#251=ADVANCED_FACE('',(#31,#19),#238,.T.);
#252=ADVANCED_FACE('',(#32),#239,.T.);
#253=ADVANCED_FACE('',(#33),#240,.T.);
#254=ADVANCED_FACE('',(#34,#20),#241,.T.);
#255=ADVANCED_FACE('',(#35),#242,.T.);
#256=ADVANCED_FACE('',(#36),#243,.T.);
#257=ADVANCED_FACE('',(#37),#244,.T.);
#258=CLOSED_SHELL('',(#245,#246,#247,#248,#249,#250,#251,#252,#253,#254,
#255,#256,#257));
#259=DERIVED_UNIT_ELEMENT(#262,1.);
#260=DERIVED_UNIT_ELEMENT(#437,-3.);
#261=DIMENSIONAL_EXPONENTS(0.,1.,0.,0.,0.,0.,0.);
#262=(
CONVERSION_BASED_UNIT('gram',#264)
MASS_UNIT()
NAMED_UNIT(#261)
);
#263=(
MASS_UNIT()
NAMED_UNIT(*)
SI_UNIT(.KILO.,.GRAM.)
);
#264=MASS_MEASURE_WITH_UNIT(MASS_MEASURE(0.001),#263);
#265=DERIVED_UNIT((#259,#260));
#266=MEASURE_REPRESENTATION_ITEM('density measure',
POSITIVE_RATIO_MEASURE(1.),#265);
#267=PROPERTY_DEFINITION_REPRESENTATION(#272,#269);
#268=PROPERTY_DEFINITION_REPRESENTATION(#273,#270);
#269=REPRESENTATION('material name',(#271),#434);
#270=REPRESENTATION('density',(#266),#434);
#271=DESCRIPTIVE_REPRESENTATION_ITEM('Generico','Generico');
#272=PROPERTY_DEFINITION('material property','material name',#444);
#273=PROPERTY_DEFINITION('material property','density of part',#444);
#274=DATE_TIME_ROLE('creation_date');
#275=APPLIED_DATE_AND_TIME_ASSIGNMENT(#276,#274,(#444));
#276=DATE_AND_TIME(#277,#278);
#277=CALENDAR_DATE(2024,4,5);
#278=LOCAL_TIME(0,0,0.,#279);
#279=COORDINATED_UNIVERSAL_TIME_OFFSET(0,0,.BEHIND.);
#280=AXIS2_PLACEMENT_3D('',#363,#298,#299);
#281=AXIS2_PLACEMENT_3D('',#364,#300,#301);
#282=AXIS2_PLACEMENT_3D('',#373,#306,#307);
#283=AXIS2_PLACEMENT_3D('',#380,#311,#312);
#284=AXIS2_PLACEMENT_3D('',#381,#313,#314);
#285=AXIS2_PLACEMENT_3D('',#395,#322,#323);
#286=AXIS2_PLACEMENT_3D('',#400,#326,#327);
#287=AXIS2_PLACEMENT_3D('',#401,#328,#329);
#288=AXIS2_PLACEMENT_3D('',#404,#331,#332);
#289=AXIS2_PLACEMENT_3D('',#405,#333,#334);
#290=AXIS2_PLACEMENT_3D('',#408,#336,#337);
#291=AXIS2_PLACEMENT_3D('',#409,#338,#339);
#292=AXIS2_PLACEMENT_3D('',#415,#343,#344);
#293=AXIS2_PLACEMENT_3D('',#417,#346,#347);
#294=AXIS2_PLACEMENT_3D('',#421,#350,#351);
#295=AXIS2_PLACEMENT_3D('',#425,#354,#355);
#296=AXIS2_PLACEMENT_3D('',#429,#358,#359);
#297=AXIS2_PLACEMENT_3D('',#431,#361,#362);
#298=DIRECTION('axis',(0.,0.,1.));
#299=DIRECTION('refdir',(1.,0.,0.));
#300=DIRECTION('center_axis',(1.,0.,0.));
#301=DIRECTION('ref_axis',(0.,0.,1.));
#302=DIRECTION('',(0.,0.,1.));
#303=DIRECTION('',(0.,1.,0.));
#304=DIRECTION('',(0.,0.,1.));
#305=DIRECTION('',(0.,-1.,0.));
#306=DIRECTION('center_axis',(0.,-1.,0.));
#307=DIRECTION('ref_axis',(0.,0.,-1.));
#308=DIRECTION('',(0.,0.,-1.));
#309=DIRECTION('',(-1.,0.,0.));
#310=DIRECTION('',(1.,0.,0.));
#311=DIRECTION('center_axis',(0.,1.,0.));
#312=DIRECTION('ref_axis',(1.,0.,0.));
#313=DIRECTION('center_axis',(0.,0.,-1.));
#314=DIRECTION('ref_axis',(-1.,0.,0.));
#315=DIRECTION('',(-1.,0.,0.));
#316=DIRECTION('',(0.,1.,0.));
#317=DIRECTION('',(1.,0.,0.));
#318=DIRECTION('',(0.707106781186548,-0.707106781186547,0.));
#319=DIRECTION('',(0.707106781186548,0.707106781186547,0.));
#320=DIRECTION('',(1.,0.,0.));
#321=DIRECTION('',(-3.88594414019757E-16,-1.,0.));
#322=DIRECTION('center_axis',(0.,1.,0.));
#323=DIRECTION('ref_axis',(1.,0.,0.));
#324=DIRECTION('',(-1.,0.,0.));
#325=DIRECTION('',(0.,0.,-1.));
#326=DIRECTION('center_axis',(0.,-1.,0.));
#327=DIRECTION('ref_axis',(1.,0.,0.));
#328=DIRECTION('center_axis',(0.,1.,0.));
#329=DIRECTION('ref_axis',(1.,0.,0.));
#330=DIRECTION('',(0.,-1.,0.));
#331=DIRECTION('center_axis',(0.,1.,0.));
#332=DIRECTION('ref_axis',(1.,0.,0.));
#333=DIRECTION('center_axis',(0.,1.,0.));
#334=DIRECTION('ref_axis',(1.,0.,0.));
#335=DIRECTION('',(0.,-1.,0.));
#336=DIRECTION('center_axis',(0.,1.,0.));
#337=DIRECTION('ref_axis',(1.,0.,0.));
#338=DIRECTION('center_axis',(0.,-1.,0.));
#339=DIRECTION('ref_axis',(-1.,0.,0.));
#340=DIRECTION('',(0.,0.,-1.));
#341=DIRECTION('',(1.,0.,0.));
#342=DIRECTION('',(0.,0.,-1.));
#343=DIRECTION('center_axis',(1.,0.,0.));
#344=DIRECTION('ref_axis',(0.,-1.,0.));
#345=DIRECTION('',(0.,1.,0.));
#346=DIRECTION('center_axis',(-1.,3.88594414019757E-16,0.));
#347=DIRECTION('ref_axis',(3.88594414019757E-16,1.,0.));
#348=DIRECTION('',(0.,0.,-1.));
#349=DIRECTION('',(-3.88594414019757E-16,-1.,0.));
#350=DIRECTION('center_axis',(0.,-1.,0.));
#351=DIRECTION('ref_axis',(-1.,0.,0.));
#352=DIRECTION('',(0.,0.,-1.));
#353=DIRECTION('',(1.,0.,0.));
#354=DIRECTION('center_axis',(0.707106781186547,-0.707106781186548,0.));
#355=DIRECTION('ref_axis',(-0.707106781186548,-0.707106781186547,0.));
#356=DIRECTION('',(0.,0.,-1.));
#357=DIRECTION('',(0.707106781186548,0.707106781186547,0.));
#358=DIRECTION('center_axis',(-0.707106781186547,-0.707106781186548,0.));
#359=DIRECTION('ref_axis',(-0.707106781186548,0.707106781186547,0.));
#360=DIRECTION('',(0.707106781186548,-0.707106781186547,0.));
#361=DIRECTION('center_axis',(0.,0.,1.));
#362=DIRECTION('ref_axis',(1.,0.,0.));
#363=CARTESIAN_POINT('',(0.,0.,0.));
#364=CARTESIAN_POINT('Origin',(-15.7842712474619,30.2132034355964,-26.));
#365=CARTESIAN_POINT('',(-15.7842712474619,30.2132034355964,-26.));
#366=CARTESIAN_POINT('',(-15.7842712474619,30.2132034355964,0.));
#367=CARTESIAN_POINT('',(-15.7842712474619,30.2132034355964,-13.));
#368=CARTESIAN_POINT('',(-15.7842712474619,10.2132034355964,-26.));
#369=CARTESIAN_POINT('',(-15.7842712474619,22.1421356237309,-26.));
#370=CARTESIAN_POINT('',(-15.7842712474619,10.2132034355964,0.));
#371=CARTESIAN_POINT('',(-15.7842712474619,10.2132034355964,0.));
#372=CARTESIAN_POINT('',(-15.7842712474619,22.1421356237309,0.));
#373=CARTESIAN_POINT('Origin',(-22.0342712474619,10.2132034355964,-13.));
#374=CARTESIAN_POINT('',(-28.2842712474619,10.2132034355964,0.));
#375=CARTESIAN_POINT('',(-28.2842712474619,10.2132034355964,-26.));
#376=CARTESIAN_POINT('',(-28.2842712474619,10.2132034355964,-6.5));
#377=CARTESIAN_POINT('',(-11.017135623731,10.2132034355964,0.));
#378=CARTESIAN_POINT('',(-11.017135623731,10.2132034355964,-26.));
#379=CARTESIAN_POINT('',(-25.9487373415292,10.2132034355964,-13.));
#380=CARTESIAN_POINT('Origin',(-24.2487373415292,10.2132034355964,-13.));
#381=CARTESIAN_POINT('Origin',(-2.88657986402541E-14,14.0710678118655,-26.));
#382=CARTESIAN_POINT('',(28.2842712474619,30.2132034355964,-26.));
#383=CARTESIAN_POINT('',(-14.142135623731,30.2132034355964,-26.));
#384=CARTESIAN_POINT('',(28.2842712474619,12.0710678118655,-26.));
#385=CARTESIAN_POINT('',(28.2842712474619,22.1421356237309,-26.));
#386=CARTESIAN_POINT('',(20.2132034355964,12.0710678118655,-26.));
#387=CARTESIAN_POINT('',(14.1421356237309,12.0710678118655,-26.));
#388=CARTESIAN_POINT('',(7.07106781186545,25.2132034355964,-26.));
#389=CARTESIAN_POINT('',(14.6599025766973,17.6243686707646,-26.));
#390=CARTESIAN_POINT('',(-20.2132034355964,-2.07106781186547,-26.));
#391=CARTESIAN_POINT('',(2.51776695296634,20.6599025766973,-26.));
#392=CARTESIAN_POINT('',(-28.2842712474619,-2.07106781186547,-26.));
#393=CARTESIAN_POINT('',(-10.1066017177982,-2.07106781186547,-26.));
#394=CARTESIAN_POINT('',(-28.2842712474619,6.00000000000001,-26.));
#395=CARTESIAN_POINT('Origin',(-28.2842712474619,30.2132034355964,0.));
#396=CARTESIAN_POINT('',(28.2842712474619,30.2132034355964,0.));
#397=CARTESIAN_POINT('',(28.2842712474619,30.2132034355964,0.));
#398=CARTESIAN_POINT('',(28.2842712474619,30.2132034355964,0.));
#399=CARTESIAN_POINT('',(22.5487373415291,30.2132034355964,-13.));
#400=CARTESIAN_POINT('Origin',(24.2487373415291,30.2132034355964,-13.));
#401=CARTESIAN_POINT('Origin',(-24.2487373415292,-39.9172048762029,-13.));
#402=CARTESIAN_POINT('',(-25.9487373415292,-2.07106781186547,-13.));
#403=CARTESIAN_POINT('',(-25.9487373415292,-39.9172048762029,-13.));
#404=CARTESIAN_POINT('Origin',(-24.2487373415292,-2.07106781186547,-13.));
#405=CARTESIAN_POINT('Origin',(24.2487373415291,-39.9172048762029,-13.));
#406=CARTESIAN_POINT('',(22.5487373415291,12.0710678118655,-13.));
#407=CARTESIAN_POINT('',(22.5487373415291,-39.9172048762029,-13.));
#408=CARTESIAN_POINT('Origin',(24.2487373415291,12.0710678118655,-13.));
#409=CARTESIAN_POINT('Origin',(28.2842712474619,12.0710678118655,0.));
#410=CARTESIAN_POINT('',(28.2842712474619,12.0710678118655,0.));
#411=CARTESIAN_POINT('',(28.2842712474619,12.0710678118655,0.));
#412=CARTESIAN_POINT('',(20.2132034355964,12.0710678118655,0.));
#413=CARTESIAN_POINT('',(7.07106781186542,12.0710678118655,0.));
#414=CARTESIAN_POINT('',(20.2132034355964,12.0710678118655,0.));
#415=CARTESIAN_POINT('Origin',(28.2842712474619,30.2132034355964,0.));
#416=CARTESIAN_POINT('',(28.2842712474619,10.0710678118655,0.));
#417=CARTESIAN_POINT('Origin',(-28.2842712474619,-2.07106781186547,0.));
#418=CARTESIAN_POINT('',(-28.2842712474619,-2.07106781186547,0.));
#419=CARTESIAN_POINT('',(-28.2842712474619,-2.07106781186547,0.));
#420=CARTESIAN_POINT('',(-28.2842712474619,30.2132034355964,0.));
#421=CARTESIAN_POINT('Origin',(-20.2132034355964,-2.07106781186547,0.));
#422=CARTESIAN_POINT('',(-20.2132034355964,-2.07106781186547,0.));
#423=CARTESIAN_POINT('',(-20.2132034355964,-2.07106781186547,0.));
#424=CARTESIAN_POINT('',(-37.8989460845661,-2.07106781186547,0.));
#425=CARTESIAN_POINT('Origin',(7.07106781186545,25.2132034355964,0.));
#426=CARTESIAN_POINT('',(7.07106781186545,25.2132034355964,0.));
#427=CARTESIAN_POINT('',(7.07106781186545,25.2132034355964,0.));
#428=CARTESIAN_POINT('',(-21.2132034355965,-3.07106781186547,0.));
#429=CARTESIAN_POINT('Origin',(20.2132034355964,12.0710678118655,0.));
#430=CARTESIAN_POINT('',(7.07106781186545,25.2132034355964,0.));
#431=CARTESIAN_POINT('Origin',(-2.88657986402541E-14,14.0710678118655,0.));
#432=UNCERTAINTY_MEASURE_WITH_UNIT(LENGTH_MEASURE(0.01),#436,
'DISTANCE_ACCURACY_VALUE',
'Maximum model space distance between geometric entities at asserted c
onnectivities');
#433=UNCERTAINTY_MEASURE_WITH_UNIT(LENGTH_MEASURE(0.01),#436,
'DISTANCE_ACCURACY_VALUE',
'Maximum model space distance between geometric entities at asserted c
onnectivities');
#434=(
GEOMETRIC_REPRESENTATION_CONTEXT(3)
GLOBAL_UNCERTAINTY_ASSIGNED_CONTEXT((#432))
GLOBAL_UNIT_ASSIGNED_CONTEXT((#436,#438,#439))
REPRESENTATION_CONTEXT('','3D')
);
#435=(
GEOMETRIC_REPRESENTATION_CONTEXT(3)
GLOBAL_UNCERTAINTY_ASSIGNED_CONTEXT((#433))
GLOBAL_UNIT_ASSIGNED_CONTEXT((#436,#438,#439))
REPRESENTATION_CONTEXT('','3D')
);
#436=(
LENGTH_UNIT()
NAMED_UNIT(*)
SI_UNIT(.MILLI.,.METRE.)
);
#437=(
LENGTH_UNIT()
NAMED_UNIT(*)
SI_UNIT(.CENTI.,.METRE.)
);
#438=(
NAMED_UNIT(*)
PLANE_ANGLE_UNIT()
SI_UNIT($,.RADIAN.)
);
#439=(
NAMED_UNIT(*)
SI_UNIT($,.STERADIAN.)
SOLID_ANGLE_UNIT()
);
#440=SHAPE_DEFINITION_REPRESENTATION(#441,#442);
#441=PRODUCT_DEFINITION_SHAPE('',$,#444);
#442=SHAPE_REPRESENTATION('',(#280),#434);
#443=PRODUCT_DEFINITION_CONTEXT('part definition',#448,'design');
#444=PRODUCT_DEFINITION('F-SICT-09','F-SICT-09',#445,#443);
#445=PRODUCT_DEFINITION_FORMATION('',$,#450);
#446=PRODUCT_RELATED_PRODUCT_CATEGORY('F-SICT-09','F-SICT-09',(#450));
#447=APPLICATION_PROTOCOL_DEFINITION('international standard',
'automotive_design',2009,#448);
#448=APPLICATION_CONTEXT(
'Core Data for Automotive Mechanical Design Process');
#449=PRODUCT_CONTEXT('part definition',#448,'mechanical');
#450=PRODUCT('F-SICT-09','F-SICT-09',$,(#449));
#451=PRESENTATION_STYLE_ASSIGNMENT((#452));
#452=SURFACE_STYLE_USAGE(.BOTH.,#455);
#453=SURFACE_STYLE_RENDERING_WITH_PROPERTIES($,#459,(#454));
#454=SURFACE_STYLE_TRANSPARENT(0.);
#455=SURFACE_SIDE_STYLE('',(#456,#453));
#456=SURFACE_STYLE_FILL_AREA(#457);
#457=FILL_AREA_STYLE('',(#458));
#458=FILL_AREA_STYLE_COLOUR('',#459);
#459=COLOUR_RGB('',0.749019607843137,0.749019607843137,0.749019607843137);
ENDSEC;
END-ISO-10303-21;
